  0
SECTION
  2
HEADER
  9
$ACADVER
  1
AC1009
  9
$INSBASE
 10
0.0
 20
0.0
 30
0.0
  9
$EXTMIN
 10
15.71134369507854
 20
7.6730339606156122
 30
-0.0000000000000053
  9
$EXTMAX
 10
3990.7398396495942
 20
2747.7405237952412
 30
0.0000000000000099
  9
$LIMMIN
 10
0.0
 20
0.0
  9
$LIMMAX
 10
12.0
 20
9.0
  9
$ORTHOMODE
 70
     1
  9
$REGENMODE
 70
     1
  9
$FILLMODE
 70
     1
  9
$QTEXTMODE
 70
     0
  9
$MIRRTEXT
 70
     0
  9
$DRAGMODE
 70
     2
  9
$LTSCALE
 40
1.0
  9
$OSMODE
 70
    45
  9
$ATTMODE
 70
     1
  9
$TEXTSIZE
 40
0.0
  9
$TRACEWID
 40
0.05
  9
$TEXTSTYLE
  7
STANDARD
  9
$CLAYER
  8
1
  9
$CELTYPE
  6
CONTINUOUS
  9
$CECOLOR
 62
   256
  9
$DIMSCALE
 40
10.0
  9
$DIMASZ
 40
3.0
  9
$DIMEXO
 40
20.0
  9
$DIMDLI
 40
10.0
  9
$DIMRND
 40
0.0
  9
$DIMDLE
 40
0.0
  9
$DIMEXE
 40
1.0
  9
$DIMTP
 40
0.0
  9
$DIMTM
 40
0.0
  9
$DIMTXT
 40
18.0
  9
$DIMCEN
 40
0.09
  9
$DIMTSZ
 40
0.0
  9
$DIMTOL
 70
     0
  9
$DIMLIM
 70
     0
  9
$DIMTIH
 70
     1
  9
$DIMTOH
 70
     1
  9
$DIMSE1
 70
     0
  9
$DIMSE2
 70
     0
  9
$DIMTAD
 70
     1
  9
$DIMZIN
 70
     0
  9
$DIMBLK
  1
OPEN30
  9
$DIMASO
 70
     1
  9
$DIMSHO
 70
     1
  9
$DIMPOST
  1

  9
$DIMAPOST
  1

  9
$DIMALT
 70
     0
  9
$DIMALTD
 70
     2
  9
$DIMALTF
 40
25.399999999999999
  9
$DIMLFAC
 40
1.0
  9
$DIMTOFL
 70
     0
  9
$DIMTVP
 40
0.0
  9
$DIMTIX
 70
     0
  9
$DIMSOXD
 70
     0
  9
$DIMSAH
 70
     0
  9
$DIMBLK1
  1

  9
$DIMBLK2
  1

  9
$DIMSTYLE
  2
S1
  9
$DIMCLRD
 70
     0
  9
$DIMCLRE
 70
     0
  9
$DIMCLRT
 70
     0
  9
$DIMTFAC
 40
1.0
  9
$DIMGAP
 40
1.0
  9
$LUNITS
 70
     2
  9
$LUPREC
 70
     4
  9
$SKETCHINC
 40
0.1
  9
$FILLETRAD
 40
0.0
  9
$AUNITS
 70
     0
  9
$AUPREC
 70
     0
  9
$MENU
  1
.
  9
$ELEVATION
 40
0.0
  9
$PELEVATION
 40
0.0
  9
$THICKNESS
 40
0.0
  9
$LIMCHECK
 70
     0
  9
$BLIPMODE
 70
     0
  9
$CHAMFERA
 40
0.0
  9
$CHAMFERB
 40
0.0
  9
$SKPOLY
 70
     0
  9
$TDCREATE
 40
2455053.8955336688
  9
$TDUPDATE
 40
2455057.5580192022
  9
$TDINDWG
 40
0.04896375
  9
$TDUSRTIMER
 40
0.04896375
  9
$USRTIMER
 70
     1
  9
$ANGBASE
 50
0.0
  9
$ANGDIR
 70
     0
  9
$PDMODE
 70
     0
  9
$PDSIZE
 40
0.0
  9
$PLINEWID
 40
0.0
  9
$COORDS
 70
     1
  9
$SPLFRAME
 70
     0
  9
$SPLINETYPE
 70
     6
  9
$SPLINESEGS
 70
     8
  9
$ATTDIA
 70
     0
  9
$ATTREQ
 70
     1
  9
$HANDLING
 70
     1
  9
$HANDSEED
  5
16A8
  9
$SURFTAB1
 70
     6
  9
$SURFTAB2
 70
     6
  9
$SURFTYPE
 70
     6
  9
$SURFU
 70
     6
  9
$SURFV
 70
     6
  9
$UCSNAME
  2

  9
$UCSORG
 10
0.0
 20
0.0
 30
0.0
  9
$UCSXDIR
 10
1.0
 20
0.0
 30
0.0
  9
$UCSYDIR
 10
0.0
 20
1.0
 30
0.0
  9
$PUCSNAME
  2

  9
$PUCSORG
 10
0.0
 20
0.0
 30
0.0
  9
$PUCSXDIR
 10
1.0
 20
0.0
 30
0.0
  9
$PUCSYDIR
 10
0.0
 20
1.0
 30
0.0
  9
$USERI1
 70
     0
  9
$USERI2
 70
     0
  9
$USERI3
 70
     0
  9
$USERI4
 70
     0
  9
$USERI5
 70
     0
  9
$USERR1
 40
0.0
  9
$USERR2
 40
0.0
  9
$USERR3
 40
0.0
  9
$USERR4
 40
0.0
  9
$USERR5
 40
0.0
  9
$WORLDVIEW
 70
     1
  9
$SHADEDGE
 70
     3
  9
$SHADEDIF
 70
    70
  9
$TILEMODE
 70
     1
  9
$MAXACTVP
 70
    64
  9
$PLIMCHECK
 70
     0
  9
$PEXTMIN
 10
1.0000000000000000E+020
 20
1.0000000000000000E+020
 30
1.0000000000000000E+020
  9
$PEXTMAX
 10
-1.0000000000000000E+020
 20
-1.0000000000000000E+020
 30
-1.0000000000000000E+020
  9
$PLIMMIN
 10
0.0
 20
0.0
  9
$PLIMMAX
 10
12.0
 20
9.0
  9
$UNITMODE
 70
     0
  9
$VISRETAIN
 70
     1
  9
$PLINEGEN
 70
     0
  9
$PSLTSCALE
 70
     1
  0
ENDSEC
  0
SECTION
  2
TABLES
  0
TABLE
  2
VPORT
 70
     2
  0
VPORT
  2
*ACTIVE
 70
     0
 10
0.0
 20
0.0
 11
1.0
 21
1.0
 12
1995.3699198247971
 22
1373.8702618976199
 13
0.0
 23
0.0
 14
1.0
 24
1.0
 15
0.0
 25
0.0
 16
0.0
 26
0.0
 36
1.0
 17
0.0
 27
0.0
 37
0.0
 40
2773.1433637686941
 41
1.8873456790123451
 42
50.0
 43
0.0
 44
0.0
 50
0.0
 51
0.0
 71
     0
 72
   100
 73
     1
 74
     1
 75
     0
 76
     0
 77
     0
 78
     0
  0
ENDTAB
  0
TABLE
  2
LTYPE
 70
     4
  0
LTYPE
  2
CONTINUOUS
 70
     0
  3
CONTINUOUS
 72
    65
 73
     0
 40
0.0
  0
LTYPE
  2
DASHED1
 70
     0
  3
DASHED1
 72
    65
 73
     2
 40
2.5
 49
1.25
 49
-1.25
  0
LTYPE
  2
DASHED2
 70
     0
  3
DASHED2
 72
    65
 73
     4
 40
10.0
 49
6.25
 49
-1.25
 49
1.25
 49
-1.25
  0
LTYPE
  2
CENTER
 70
     0
  3
CENTER
 72
    65
 73
     2
 40
2.5
 49
0.625
 49
-1.875
  0
ENDTAB
  0
TABLE
  2
LAYER
 70
     9
  0
LAYER
  2
0
 70
     0
 62
     7
  6
CONTINUOUS
  0
LAYER
  2
CENTERLINE
 70
     0
 62
     9
  6
CONTINUOUS
  0
LAYER
  2
7
 70
     0
 62
     7
  6
CONTINUOUS
  0
LAYER
  2
1
 70
     0
 62
     3
  6
CONTINUOUS
  0
LAYER
  2
5
 70
     0
 62
     7
  6
CONTINUOUS
  0
LAYER
  2
6
 70
     0
 62
     7
  6
CONTINUOUS
  0
LAYER
  2
2
 70
     0
 62
     7
  6
CONTINUOUS
  0
LAYER
  2
3
 70
     0
 62
     7
  6
CONTINUOUS
  0
LAYER
  2
4
 70
     0
 62
     7
  6
CONTINUOUS
  0
ENDTAB
  0
TABLE
  2
STYLE
 70
     1
  0
STYLE
  2
STANDARD
 70
     0
 40
0.0
 41
1.0
 50
0.0
 71
     0
 42
0.0
  3
TXT
  4
BIGFONT
  0
ENDTAB
  0
TABLE
  2
VIEW
 70
     0
  0
ENDTAB
  0
TABLE
  2
UCS
 70
     0
  0
ENDTAB
  0
TABLE
  2
APPID
 70
     1
  0
APPID
  2
ACAD
 70
     0
  0
ENDTAB
  0
TABLE
  2
DIMSTYLE
 70
     2
  0
DIMSTYLE
  2
STANDARD
 70
     0
  3

  4

  5

  6

  7

 40
1.0
 41
0.18
 42
0.0625
 43
0.38
 44
0.18
 45
0.0
 46
0.0
 47
0.0
 48
0.0
140
0.18
141
0.09
142
0.0
143
25.399999999999999
144
1.0
145
0.0
146
1.0
147
0.09
 71
     0
 72
     0
 73
     1
 74
     1
 75
     0
 76
     0
 77
     0
 78
     0
170
     0
171
     2
172
     0
173
     0
174
     0
175
     0
176
     0
177
     0
178
     0
  0
DIMSTYLE
  2
S1
 70
     0
  3

  4

  5
OPEN30
  6

  7

 40
10.0
 41
3.0
 42
20.0
 43
10.0
 44
1.0
 45
0.0
 46
0.0
 47
0.0
 48
0.0
140
18.0
141
0.09
142
0.0
143
25.399999999999999
144
1.0
145
0.0
146
1.0
147
1.0
 71
     0
 72
     0
 73
     1
 74
     1
 75
     0
 76
     0
 77
     1
 78
     0
170
     0
171
     2
172
     0
173
     0
174
     0
175
     0
176
     0
177
     0
178
     0
  0
ENDTAB
  0
ENDSEC
  0
SECTION
  2
BLOCKS
  0
BLOCK
  8
0
  2
$MODEL_SPACE
 70
     0
 10
0.0
 20
0.0
 30
0.0
  3
$MODEL_SPACE
  1

  0
ENDBLK
  5
22
  8
0
  0
BLOCK
 67
     1
  8
0
  2
$PAPER_SPACE
 70
     0
 10
0.0
 20
0.0
 30
0.0
  3
$PAPER_SPACE
  1

  0
ENDBLK
  5
1E
 67
     1
  8
0
  0
BLOCK
  8
0
  2
_OPEN30
 70
     0
 10
0.0
 20
0.0
 30
0.0
  3
_OPEN30
  1

  0
LINE
  5
1186
  8
0
  6
BYBLOCK
 62
     0
 10
-1.0
 20
0.26794919
 30
0.0
 11
0.0
 21
0.0
 31
0.0
  0
LINE
  5
1187
  8
0
  6
BYBLOCK
 62
     0
 10
0.0
 20
0.0
 30
0.0
 11
-1.0
 21
-0.26794919
 31
0.0
  0
LINE
  5
1188
  8
0
  6
BYBLOCK
 62
     0
 10
0.0
 20
0.0
 30
0.0
 11
-1.0
 21
0.0
 31
0.0
  0
ENDBLK
  5
118A
  8
0
  0
ENDSEC
  0
SECTION
  2
ENTITIES
  0
POINT
  5
70
  8
6
 10
1482.989868164062
 20
1974.9901046752909
 30
0.0
  0
LINE
  5
73
  8
7
  6
CONTINUOUS
 62
     6
 10
3990.7398071289081
 20
7.7400150299072301
 30
0.0
 11
3990.7398071289081
 21
2747.7405014038059
 31
0.0
  0
LINE
  5
75
  8
7
  6
CONTINUOUS
 62
     6
 10
15.7399597167969
 20
7.7400150299072301
 30
0.0
 11
3990.7398071289081
 21
7.7400150299072301
 31
0.0
  0
LINE
  5
7F
  8
4
  6
DASHED1
 10
1282.496856689452
 20
1933.9666976928711
 30
0.0
 11
1505.6105651855471
 21
1933.9666976928711
 31
0.0
  0
LINE
  5
80
  8
4
  6
DASHED1
 10
1282.496856689452
 20
1556.513236999511
 30
0.0
 11
1505.6105651855471
 21
1556.513236999511
 31
0.0
  0
LINE
  5
E5
  8
6
  6
CONTINUOUS
 10
1000.906509399412
 20
2405.5732955932608
 30
0.0
 11
987.5732269287123
 21
2405.5732955932608
 31
0.0
  0
LINE
  5
E6
  8
6
  6
CONTINUOUS
 10
976.73994445800724
 20
2429.740165710451
 30
0.0
 11
976.73994445800724
 21
2416.4067306518568
 31
0.0
  0
LINE
  5
E7
  8
6
  6
CONTINUOUS
 10
965.90658569335733
 20
2405.5732955932608
 30
0.0
 11
952.5732269287123
 21
2405.5732955932608
 31
0.0
  0
LINE
  5
E8
  8
6
  6
CONTINUOUS
 10
976.73994445800724
 20
2364.7400131225609
 30
0.0
 11
976.73994445800724
 21
2394.7398605346671
 31
0.0
  0
LINE
  5
E9
  8
6
  6
CONTINUOUS
 10
1659.906524658202
 20
2405.5732955932608
 30
0.0
 11
1646.573242187497
 21
2405.5732955932608
 31
0.0
  0
LINE
  5
EA
  8
6
  6
CONTINUOUS
 10
1635.7399597167971
 20
2429.740165710451
 30
0.0
 11
1635.7399597167971
 21
2416.4067306518568
 31
0.0
  0
LINE
  5
EB
  8
6
  6
CONTINUOUS
 10
1624.9065246582029
 20
2405.5732955932608
 30
0.0
 11
1611.573242187497
 21
2405.5732955932608
 31
0.0
  0
LINE
  5
EC
  8
6
  6
CONTINUOUS
 10
1635.7399597167971
 20
2364.7400131225609
 30
0.0
 11
1635.7399597167971
 21
2394.7398605346671
 31
0.0
  0
LINE
  5
ED
  8
6
  6
CONTINUOUS
 10
335.90654754638638
 20
2038.906578063966
 30
0.0
 11
335.90654754638638
 21
2025.573295593261
 31
0.0
  0
LINE
  5
EE
  8
6
  6
CONTINUOUS
 10
311.73990631103487
 20
2014.7400131225611
 30
0.0
 11
325.07318878173839
 21
2014.7400131225611
 31
0.0
  0
LINE
  5
EF
  8
6
  6
CONTINUOUS
 10
335.90654754638638
 20
2003.9067306518559
 30
0.0
 11
335.90654754638638
 21
1990.573448181151
 31
0.0
  0
LINE
  5
F0
  8
6
  6
CONTINUOUS
 10
376.73986816406239
 20
2014.7400131225611
 30
0.0
 11
346.73990631103487
 21
2014.7400131225611
 31
0.0
  0
LINE
  5
F1
  8
6
  6
CONTINUOUS
 10
335.90654754638638
 20
661.90668487548612
 30
0.0
 11
335.90654754638638
 21
648.57332611084109
 31
0.0
  0
LINE
  5
F2
  8
6
  6
CONTINUOUS
 10
311.73990631103487
 20
637.74004364013604
 30
0.0
 11
325.07318878173839
 21
637.74004364013604
 31
0.0
  0
LINE
  5
F3
  8
6
  6
CONTINUOUS
 10
335.90654754638638
 20
626.90668487548612
 30
0.0
 11
335.90654754638638
 21
613.57332611084109
 31
0.0
  0
LINE
  5
F4
  8
6
  6
CONTINUOUS
 10
376.73986816406239
 20
637.74004364013604
 30
0.0
 11
346.73990631103487
 21
637.74004364013604
 31
0.0
  0
LINE
  5
F5
  8
6
  6
CONTINUOUS
 10
335.90654754638638
 20
1040.9066238403309
 30
0.0
 11
335.90654754638638
 21
1027.573341369631
 31
0.0
  0
LINE
  5
F6
  8
6
  6
CONTINUOUS
 10
311.73990631103487
 20
1016.740058898926
 30
0.0
 11
325.07318878173839
 21
1016.740058898926
 31
0.0
  0
LINE
  5
F7
  8
6
  6
CONTINUOUS
 10
335.90654754638638
 20
1005.906700134276
 30
0.0
 11
335.90654754638638
 21
992.57334136963095
 31
0.0
  0
LINE
  5
F8
  8
6
  6
CONTINUOUS
 10
376.73986816406239
 20
1016.740058898926
 30
0.0
 11
346.73990631103487
 21
1016.740058898926
 31
0.0
  0
LINE
  5
F9
  8
6
  6
CONTINUOUS
 10
335.90654754638638
 20
1499.9066390991211
 30
0.0
 11
335.90654754638638
 21
1486.5733566284159
 31
0.0
  0
LINE
  5
FA
  8
6
  6
CONTINUOUS
 10
311.73990631103487
 20
1475.739921569826
 30
0.0
 11
325.07318878173839
 21
1475.739921569826
 31
0.0
  0
LINE
  5
FB
  8
6
  6
CONTINUOUS
 10
335.90654754638638
 20
1464.9066390991211
 30
0.0
 11
335.90654754638638
 21
1451.5733566284159
 31
0.0
  0
LINE
  5
FC
  8
6
  6
CONTINUOUS
 10
376.73986816406239
 20
1475.739921569826
 30
0.0
 11
346.73990631103487
 21
1475.739921569826
 31
0.0
  0
LINE
  5
155
  8
6
  6
CONTINUOUS
 10
2859.9066772460928
 20
2405.5732955932608
 30
0.0
 11
2846.5732421874982
 21
2405.5732955932608
 31
0.0
  0
LINE
  5
156
  8
6
  6
CONTINUOUS
 10
2835.7398071289072
 20
2429.740165710451
 30
0.0
 11
2835.7398071289072
 21
2416.4067306518568
 31
0.0
  0
LINE
  5
157
  8
6
  6
CONTINUOUS
 10
2824.906372070313
 20
2405.5732955932608
 30
0.0
 11
2811.5732421874982
 21
2405.5732955932608
 31
0.0
  0
LINE
  5
158
  8
6
  6
CONTINUOUS
 10
2835.7398071289072
 20
2364.7400131225609
 30
0.0
 11
2835.7398071289072
 21
2394.7398605346671
 31
0.0
  0
LINE
  5
159
  8
6
  6
CONTINUOUS
 10
3518.906616210938
 20
2405.5732955932608
 30
0.0
 11
3505.5731811523419
 21
2405.5732955932608
 31
0.0
  0
LINE
  5
15A
  8
6
  6
CONTINUOUS
 10
3494.7400512695331
 20
2429.740165710451
 30
0.0
 11
3494.7400512695331
 21
2416.4067306518568
 31
0.0
  0
LINE
  5
15B
  8
6
  6
CONTINUOUS
 10
3483.906616210938
 20
2405.5732955932608
 30
0.0
 11
3470.5731811523419
 21
2405.5732955932608
 31
0.0
  0
LINE
  5
15C
  8
6
  6
CONTINUOUS
 10
3494.7400512695331
 20
2364.7400131225609
 30
0.0
 11
3494.7400512695331
 21
2394.7398605346671
 31
0.0
  0
LINE
  5
15D
  8
6
  6
CONTINUOUS
 10
2244.9065246582022
 20
2038.906578063966
 30
0.0
 11
2244.9065246582022
 21
2025.573295593261
 31
0.0
  0
LINE
  5
15E
  8
6
  6
CONTINUOUS
 10
2220.7398071289072
 20
2014.7400131225611
 30
0.0
 11
2234.073089599608
 21
2014.7400131225611
 31
0.0
  0
LINE
  5
15F
  8
6
  6
CONTINUOUS
 10
2244.9065246582022
 20
2003.9067306518559
 30
0.0
 11
2244.9065246582022
 21
1990.573448181151
 31
0.0
  0
LINE
  5
160
  8
6
  6
CONTINUOUS
 10
2285.7398071289072
 20
2014.7400131225611
 30
0.0
 11
2255.7399597167978
 21
2014.7400131225611
 31
0.0
  0
LINE
  5
161
  8
6
  6
CONTINUOUS
 10
2244.9065246582022
 20
661.90668487548612
 30
0.0
 11
2244.9065246582022
 21
648.57332611084109
 31
0.0
  0
LINE
  5
162
  8
6
  6
CONTINUOUS
 10
2220.7398071289072
 20
637.74004364013604
 30
0.0
 11
2234.073089599608
 21
637.74004364013604
 31
0.0
  0
LINE
  5
163
  8
6
  6
CONTINUOUS
 10
2244.9065246582022
 20
626.90668487548612
 30
0.0
 11
2244.9065246582022
 21
613.57332611084109
 31
0.0
  0
LINE
  5
164
  8
6
  6
CONTINUOUS
 10
2285.7398071289072
 20
637.74004364013604
 30
0.0
 11
2255.7399597167978
 21
637.74004364013604
 31
0.0
  0
LINE
  5
165
  8
6
  6
CONTINUOUS
 10
2244.9065246582022
 20
1040.9066238403309
 30
0.0
 11
2244.9065246582022
 21
1027.573341369631
 31
0.0
  0
LINE
  5
166
  8
6
  6
CONTINUOUS
 10
2220.7398071289072
 20
1016.740058898926
 30
0.0
 11
2234.073089599608
 21
1016.740058898926
 31
0.0
  0
LINE
  5
167
  8
6
  6
CONTINUOUS
 10
2244.9065246582022
 20
1005.906700134276
 30
0.0
 11
2244.9065246582022
 21
992.57334136963095
 31
0.0
  0
LINE
  5
168
  8
6
  6
CONTINUOUS
 10
2285.7398071289072
 20
1016.740058898926
 30
0.0
 11
2255.7399597167978
 21
1016.740058898926
 31
0.0
  0
LINE
  5
169
  8
6
  6
CONTINUOUS
 10
2244.9065246582022
 20
1499.9066390991211
 30
0.0
 11
2244.9065246582022
 21
1486.5733566284159
 31
0.0
  0
LINE
  5
16A
  8
6
  6
CONTINUOUS
 10
2220.7398071289072
 20
1475.739921569826
 30
0.0
 11
2234.073089599608
 21
1475.739921569826
 31
0.0
  0
LINE
  5
16B
  8
6
  6
CONTINUOUS
 10
2244.9065246582022
 20
1464.9066390991211
 30
0.0
 11
2244.9065246582022
 21
1451.5733566284159
 31
0.0
  0
LINE
  5
16C
  8
6
  6
CONTINUOUS
 10
2285.7398071289072
 20
1475.739921569826
 30
0.0
 11
2255.7399597167978
 21
1475.739921569826
 31
0.0
  0
LINE
  5
174
  8
5
  6
CONTINUOUS
 62
     6
 10
967.23982238769725
 20
1306.7399826049809
 30
0.0
 11
967.23982238769725
 21
1301.2401046752909
 31
0.0
  0
LINE
  5
175
  8
5
  6
CONTINUOUS
 62
     6
 10
967.23982238769725
 20
1071.239952087401
 30
0.0
 11
967.23982238769725
 21
1065.7399978637709
 31
0.0
  0
LINE
  5
176
  8
5
  6
CONTINUOUS
 62
     6
 10
971.73986816406239
 20
1304.2399826049809
 30
0.0
 11
971.73986816406239
 21
1301.2401046752909
 31
0.0
  0
LINE
  5
177
  8
5
  6
CONTINUOUS
 62
     6
 10
973.23988342285236
 20
1304.2399826049809
 30
0.0
 11
971.73986816406239
 21
1304.2399826049809
 31
0.0
  0
LINE
  5
178
  8
5
  6
CONTINUOUS
 62
     6
 10
971.73986816406239
 20
1301.2401046752909
 30
0.0
 11
971.73986816406239
 21
1297.2400131225611
 31
0.0
  0
LINE
  5
179
  8
5
  6
CONTINUOUS
 62
     6
 10
971.73986816406239
 20
1068.240074157716
 30
0.0
 11
971.73986816406239
 21
1071.239952087401
 31
0.0
  0
LINE
  5
17A
  8
5
  6
CONTINUOUS
 62
     6
 10
973.23988342285236
 20
1068.240074157716
 30
0.0
 11
971.73986816406239
 21
1068.240074157716
 31
0.0
  0
LINE
  5
17B
  8
5
  6
CONTINUOUS
 62
     6
 10
971.73986816406239
 20
1075.240043640136
 30
0.0
 11
971.73986816406239
 21
1071.239952087401
 31
0.0
  0
LINE
  5
17C
  8
5
  6
CONTINUOUS
 62
     6
 10
971.73986816406239
 20
1301.2401046752909
 30
0.0
 11
856.73986816406227
 21
1301.2401046752909
 31
0.0
  0
LINE
  5
17D
  8
5
  6
CONTINUOUS
 62
     6
 10
971.73986816406239
 20
1297.2400131225611
 30
0.0
 11
856.73986816406227
 21
1297.2400131225611
 31
0.0
  0
LINE
  5
17E
  8
5
  6
CONTINUOUS
 62
     6
 10
856.73986816406227
 20
1301.2401046752909
 30
0.0
 11
856.73986816406227
 21
1297.2400131225611
 31
0.0
  0
LINE
  5
17F
  8
5
  6
CONTINUOUS
 62
     6
 10
971.73986816406239
 20
1071.239952087401
 30
0.0
 11
856.73986816406227
 21
1071.239952087401
 31
0.0
  0
LINE
  5
180
  8
5
  6
CONTINUOUS
 62
     6
 10
971.73986816406239
 20
1075.240043640136
 30
0.0
 11
856.73986816406227
 21
1075.240043640136
 31
0.0
  0
LINE
  5
181
  8
5
  6
CONTINUOUS
 62
     6
 10
856.73986816406227
 20
1075.240043640136
 30
0.0
 11
856.73986816406227
 21
1071.239952087401
 31
0.0
  0
LINE
  5
182
  8
5
  6
CONTINUOUS
 62
     6
 10
986.43910655289426
 20
1301.2401046752909
 30
0.0
 11
971.73986816406239
 21
1301.2401046752909
 31
0.0
  0
LINE
  5
183
  8
5
  6
CONTINUOUS
 62
     6
 10
980.23992919921727
 20
1304.2399826049809
 30
0.0
 11
981.73994445800724
 21
1304.2399826049809
 31
0.0
  0
LINE
  5
184
  8
5
  6
CONTINUOUS
 62
     6
 10
981.73994445800724
 20
1301.2401046752909
 30
0.0
 11
981.73994445800724
 21
1304.2399826049809
 31
0.0
  0
LINE
  5
185
  8
5
  6
CONTINUOUS
 62
     6
 10
986.15575857591978
 20
1071.239952087401
 30
0.0
 11
971.73986816406239
 21
1071.239952087401
 31
0.0
  0
LINE
  5
186
  8
5
  6
CONTINUOUS
 62
     6
 10
980.23992919921727
 20
1068.240074157716
 30
0.0
 11
981.73994445800724
 21
1068.240074157716
 31
0.0
  0
LINE
  5
187
  8
5
  6
CONTINUOUS
 62
     6
 10
981.73994445800724
 20
1071.239952087401
 30
0.0
 11
981.73994445800724
 21
1068.240074157716
 31
0.0
  0
LINE
  5
188
  8
5
  6
CONTINUOUS
 62
     6
 10
967.23982238769725
 20
772.24001312256098
 30
0.0
 11
967.23982238769725
 21
766.73998260498115
 31
0.0
  0
LINE
  5
189
  8
5
  6
CONTINUOUS
 62
     6
 10
971.73986816406239
 20
769.23998260498115
 30
0.0
 11
971.73986816406239
 21
772.24001312256098
 31
0.0
  0
LINE
  5
18A
  8
5
  6
CONTINUOUS
 62
     6
 10
973.23988342285236
 20
769.23998260498115
 30
0.0
 11
971.73986816406239
 21
769.23998260498115
 31
0.0
  0
LINE
  5
18B
  8
5
  6
CONTINUOUS
 62
     6
 10
971.73986816406239
 20
776.24002838134606
 30
0.0
 11
971.73986816406239
 21
772.24001312256098
 31
0.0
  0
LINE
  5
18C
  8
5
  6
CONTINUOUS
 62
     6
 10
971.73986816406239
 20
885.24004364013615
 30
0.0
 11
971.73986816406239
 21
882.24001312256087
 31
0.0
  0
LINE
  5
18D
  8
5
  6
CONTINUOUS
 62
     6
 10
973.23988342285236
 20
885.24004364013615
 30
0.0
 11
971.73986816406239
 21
885.24004364013615
 31
0.0
  0
LINE
  5
18E
  8
5
  6
CONTINUOUS
 62
     6
 10
971.73986816406239
 20
772.24001312256098
 30
0.0
 11
861.73979187011741
 21
772.24001312256098
 31
0.0
  0
LINE
  5
18F
  8
5
  6
CONTINUOUS
 62
     6
 10
971.73986816406239
 20
776.24002838134606
 30
0.0
 11
861.73979187011741
 21
776.24002838134606
 31
0.0
  0
LINE
  5
190
  8
5
  6
CONTINUOUS
 62
     6
 10
861.73979187011741
 20
776.24002838134606
 30
0.0
 11
861.73979187011741
 21
772.24001312256098
 31
0.0
  0
LINE
  5
191
  8
5
  6
CONTINUOUS
 62
     6
 10
986.23991394042741
 20
772.24001312256075
 30
0.0
 11
971.73986816406239
 21
772.24001312256098
 31
0.0
  0
LINE
  5
192
  8
5
  6
CONTINUOUS
 62
     6
 10
980.23992919921727
 20
769.23998260498115
 30
0.0
 11
981.73994445800724
 21
769.23998260498115
 31
0.0
  0
LINE
  5
193
  8
5
  6
CONTINUOUS
 62
     6
 10
981.73994445800724
 20
772.24001312256098
 30
0.0
 11
981.73994445800724
 21
769.23998260498115
 31
0.0
  0
LINE
  5
194
  8
5
  6
CONTINUOUS
 62
     6
 10
986.23991394042719
 20
882.24001312256109
 30
0.0
 11
967.0406297752304
 21
882.24001312256075
 31
0.0
  0
LINE
  5
195
  8
5
  6
CONTINUOUS
 62
     6
 10
980.23992919921727
 20
885.24004364013615
 30
0.0
 11
981.73994445800724
 21
885.24004364013615
 31
0.0
  0
LINE
  5
196
  8
5
  6
CONTINUOUS
 62
     6
 10
981.73994445800724
 20
882.24001312256087
 30
0.0
 11
981.73994445800724
 21
885.24004364013615
 31
0.0
  0
LINE
  5
1D4
  8
1
  6
CONTINUOUS
 10
986.23991394042741
 20
628.24007415771609
 30
0.0
 11
986.23991394042741
 21
647.24001312256098
 31
0.0
  0
LINE
  5
1E3
  8
1
  6
CONTINUOUS
 10
1626.239990234378
 20
647.24001312256098
 30
0.0
 11
1626.239990234378
 21
628.24007415771609
 31
0.0
  0
LINE
  5
21A
  8
1
  6
CONTINUOUS
 10
986.23991394042741
 20
1466.239952087401
 30
0.0
 11
986.23991394042741
 21
1485.2398910522461
 31
0.0
  0
LINE
  5
21B
  8
1
  6
CONTINUOUS
 10
1626.239990234378
 20
1485.2398910522461
 30
0.0
 11
1626.239990234378
 21
1466.239952087401
 31
0.0
  0
LINE
  5
250
  8
1
  6
CONTINUOUS
 10
967.23982238769725
 20
887.74004364013615
 30
0.0
 11
967.23982238769725
 21
1006.73998260498
 31
0.0
  0
LINE
  5
264
  8
1
  6
CONTINUOUS
 10
1626.239990234378
 20
628.24007415771609
 30
0.0
 11
1645.2399291992169
 21
628.24007415771609
 31
0.0
  0
LINE
  5
267
  8
1
  6
CONTINUOUS
 10
1645.2399291992169
 20
647.24001312256098
 30
0.0
 11
1645.2399291992169
 21
628.24007415771609
 31
0.0
  0
LINE
  5
26D
  8
1
  6
CONTINUOUS
 10
1626.239990234378
 20
647.24001312256098
 30
0.0
 11
1645.2399291992169
 21
647.24001312256098
 31
0.0
  0
LINE
  5
29F
  8
1
  6
CONTINUOUS
 10
1625.7398071289081
 20
628.24007415771609
 30
0.0
 11
986.73994445800724
 21
628.24007415771609
 31
0.0
  0
LINE
  5
2A1
  8
1
  6
CONTINUOUS
 10
986.23991394042741
 20
766.73998260498115
 30
0.0
 11
986.23991394042741
 21
647.74004364013604
 31
0.0
  0
LINE
  5
2A9
  8
1
  6
CONTINUOUS
 10
967.23982238769725
 20
628.24007415771609
 30
0.0
 11
986.23991394042741
 21
628.24007415771609
 31
0.0
  0
LINE
  5
2AA
  8
1
  6
CONTINUOUS
 10
986.23991394042741
 20
887.74004364013615
 30
0.0
 11
967.23982238769725
 21
887.74004364013615
 31
0.0
  0
LINE
  5
2AC
  8
1
  6
CONTINUOUS
 10
967.23982238769725
 20
766.73998260498115
 30
0.0
 11
986.23991394042741
 21
766.73998260498115
 31
0.0
  0
LINE
  5
2AD
  8
1
  6
CONTINUOUS
 62
     5
 10
826.73986816406239
 20
625.24004364013604
 30
0.0
 11
1648.2398071289069
 21
625.24004364013604
 31
0.0
  0
LINE
  5
2AE
  8
1
  6
CONTINUOUS
 10
967.23982238769725
 20
647.24001312256098
 30
0.0
 11
986.23991394042741
 21
647.24001312256098
 31
0.0
  0
LINE
  5
2B0
  8
1
  6
CONTINUOUS
 10
1648.2398071289069
 20
2027.2400131225611
 30
0.0
 11
1648.2398071289069
 21
625.24004364013604
 31
0.0
  0
LINE
  5
2B1
  8
1
  6
CONTINUOUS
 10
967.23982238769725
 20
628.24007415771609
 30
0.0
 11
967.23982238769725
 21
647.24001312256098
 31
0.0
  0
LINE
  5
2B9
  8
1
  6
CONTINUOUS
 10
967.23982238769725
 20
647.74004364013604
 30
0.0
 11
967.23982238769725
 21
766.73998260498115
 31
0.0
  0
LINE
  5
2F5
  8
1
  6
CONTINUOUS
 62
     5
 10
826.73986816406239
 20
1229.9900283813461
 30
0.0
 11
826.73986816406239
 21
840.99001312256098
 31
0.0
  0
LINE
  5
2F7
  8
1
  6
CONTINUOUS
 62
     5
 10
826.73986816406239
 20
1667.8650131225611
 30
0.0
 11
826.73986816406239
 21
1257.4901046752909
 31
0.0
  0
LINE
  5
2F8
  8
1
  6
CONTINUOUS
 62
     5
 10
826.73986816406239
 20
2027.2400131225611
 30
0.0
 11
826.73986816406239
 21
1695.3650131225611
 31
0.0
  0
LINE
  5
2FD
  8
1
  6
CONTINUOUS
 62
     5
 10
826.73986816406239
 20
813.49001312256087
 30
0.0
 11
826.73986816406239
 21
625.24004364013604
 31
0.0
  0
LINE
  5
300
  8
1
  6
CONTINUOUS
 10
1626.239990234378
 20
1007.240013122561
 30
0.0
 11
1626.239990234378
 21
1026.2400283813461
 31
0.0
  0
LINE
  5
301
  8
1
  6
CONTINUOUS
 10
1645.2399291992169
 20
1007.240013122561
 30
0.0
 11
1626.239990234378
 21
1007.240013122561
 31
0.0
  0
LINE
  5
302
  8
1
  6
CONTINUOUS
 10
1645.2399291992169
 20
1026.2400283813461
 30
0.0
 11
1645.2399291992169
 21
1007.240013122561
 31
0.0
  0
LINE
  5
309
  8
1
  6
CONTINUOUS
 10
1546.7400207519529
 20
1007.240013122561
 30
0.0
 11
1585.7398071289069
 21
1007.240013122561
 31
0.0
  0
LINE
  5
30B
  8
1
  6
CONTINUOUS
 10
1625.7398071289081
 20
1007.240013122561
 30
0.0
 11
1625.7398071289081
 21
1026.2400283813461
 31
0.0
  0
LINE
  5
30C
  8
1
  6
CONTINUOUS
 10
1586.739868164062
 20
1007.240013122561
 30
0.0
 11
1625.7398071289081
 21
1007.240013122561
 31
0.0
  0
LINE
  5
311
  8
1
  6
CONTINUOUS
 10
1546.740020751952
 20
1026.2400283813461
 30
0.0
 11
1546.7400207519529
 21
1007.240013122561
 31
0.0
  0
LINE
  5
316
  8
1
  6
CONTINUOUS
 10
1645.2399291992169
 20
1465.740074157716
 30
0.0
 11
1645.2399291992169
 21
1026.740058898926
 31
0.0
  0
LINE
  5
323
  8
1
  6
CONTINUOUS
 10
1626.239990234378
 20
1026.740058898926
 30
0.0
 11
1626.239990234378
 21
1465.740074157716
 31
0.0
  0
LINE
  5
32C
  8
1
  6
CONTINUOUS
 10
1626.239990234378
 20
1465.740074157716
 30
0.0
 11
1645.2399291992169
 21
1465.740074157716
 31
0.0
  0
LINE
  5
32D
  8
1
  6
CONTINUOUS
 10
1585.7398071289069
 20
1026.2400283813461
 30
0.0
 11
1546.7400207519529
 21
1026.2400283813461
 31
0.0
  0
LINE
  5
339
  8
1
  6
CONTINUOUS
 10
1085.2399291992169
 20
1007.240013122561
 30
0.0
 11
986.73994445800724
 21
1007.240013122561
 31
0.0
  0
LINE
  5
340
  8
1
  6
CONTINUOUS
 10
986.73994445800724
 20
1026.2400283813461
 30
0.0
 11
1085.2399291992169
 21
1026.2400283813461
 31
0.0
  0
LINE
  5
341
  8
1
  6
CONTINUOUS
 10
986.73994445800724
 20
1007.240013122561
 30
0.0
 11
986.73994445800724
 21
1026.2400283813461
 31
0.0
  0
LINE
  5
342
  8
1
  6
CONTINUOUS
 10
967.23982238769725
 20
1026.2400283813461
 30
0.0
 11
986.23991394042741
 21
1026.2400283813461
 31
0.0
  0
LINE
  5
352
  8
1
  6
CONTINUOUS
 10
986.73994445800724
 20
647.24001312256098
 30
0.0
 11
1625.7398071289081
 21
647.24001312256075
 31
0.0
  0
LINE
  5
35D
  8
1
  6
CONTINUOUS
 10
986.23991394042741
 20
1306.7399826049809
 30
0.0
 11
967.23982238769725
 21
1306.7399826049809
 31
0.0
  0
LINE
  5
364
  8
1
  6
CONTINUOUS
 10
967.23982238769725
 20
1065.7399978637709
 30
0.0
 11
986.23991394042741
 21
1065.7399978637709
 31
0.0
  0
LINE
  5
36F
  8
1
  6
CONTINUOUS
 10
967.23982238769725
 20
1306.7399826049809
 30
0.0
 11
967.23982238769747
 21
1466.239952087401
 31
0.0
  0
LINE
  5
370
  8
1
  6
CONTINUOUS
 10
986.23991394042741
 20
1026.740058898926
 30
0.0
 11
967.23982238769725
 21
1026.740058898926
 31
0.0
  0
LINE
  5
374
  8
1
  6
CONTINUOUS
 10
986.23991394042741
 20
1065.7399978637709
 30
0.0
 11
986.23991394042741
 21
1026.740058898926
 31
0.0
  0
LINE
  5
379
  8
1
  6
CONTINUOUS
 10
986.23991394042741
 20
1466.239952087401
 30
0.0
 11
986.23991394042741
 21
1306.7399826049809
 31
0.0
  0
LINE
  5
387
  8
1
  6
CONTINUOUS
 10
1626.239990234378
 20
1466.239952087401
 30
0.0
 11
1645.2399291992169
 21
1466.239952087401
 31
0.0
  0
LINE
  5
389
  8
1
  6
CONTINUOUS
 10
1489.7398986816429
 20
1844.989952087401
 30
0.0
 11
1476.2398376464821
 21
1844.989952087401
 31
0.0
  0
LINE
  5
38A
  8
1
  6
CONTINUOUS
 10
967.23982238769725
 20
1466.239952087401
 30
0.0
 11
986.23991394042741
 21
1466.239952087401
 31
0.0
  0
LINE
  5
38B
  8
1
  6
CONTINUOUS
 10
1645.2399291992169
 20
1485.2398910522461
 30
0.0
 11
1645.2399291992169
 21
1466.239952087401
 31
0.0
  0
LINE
  5
392
  8
1
  6
CONTINUOUS
 10
1626.239990234378
 20
1485.2398910522461
 30
0.0
 11
1645.2399291992169
 21
1485.2398910522461
 31
0.0
  0
LINE
  5
393
  8
1
  6
CONTINUOUS
 10
967.23982238769725
 20
1485.2398910522461
 30
0.0
 11
986.23991394042741
 21
1485.2398910522461
 31
0.0
  0
LINE
  5
397
  8
1
  6
CONTINUOUS
 10
967.23982238769725
 20
1026.740058898926
 30
0.0
 11
967.23982238769725
 21
1065.7399978637709
 31
0.0
  0
LINE
  5
3A0
  8
1
  6
CONTINUOUS
 10
1476.2398376464821
 20
1914.989952087401
 30
0.0
 11
1489.7398986816429
 21
1914.989952087401
 31
0.0
  0
LINE
  5
3A4
  8
1
  6
CONTINUOUS
 10
1476.2398376464821
 20
1844.989952087401
 30
0.0
 11
1476.2398376464821
 21
1784.989952087401
 31
0.0
  0
LINE
  5
3A6
  8
1
  6
CONTINUOUS
 10
1476.2398376464821
 20
1974.9901046752909
 30
0.0
 11
1476.2398376464821
 21
1914.989952087401
 31
0.0
  0
LINE
  5
3A7
  8
1
  6
CONTINUOUS
 10
1476.2398376464821
 20
1784.989952087401
 30
0.0
 11
1489.7398986816429
 21
1784.989952087401
 31
0.0
  0
LINE
  5
3A8
  8
1
  6
CONTINUOUS
 10
1489.7398986816429
 20
1784.989952087401
 30
0.0
 11
1489.7398986816429
 21
1844.989952087401
 31
0.0
  0
LINE
  5
3A9
  8
1
  6
CONTINUOUS
 10
1489.7398986816429
 20
1914.989952087401
 30
0.0
 11
1489.7398986816429
 21
1974.9901046752909
 31
0.0
  0
LINE
  5
3AA
  8
1
  6
CONTINUOUS
 10
1489.7398986816429
 20
1974.9901046752909
 30
0.0
 11
1476.2398376464821
 21
1974.9901046752909
 31
0.0
  0
LINE
  5
3AB
  8
1
  6
CONTINUOUS
 10
967.23982238769725
 20
1466.239952087401
 30
0.0
 11
967.23982238769725
 21
1485.2398910522461
 31
0.0
  0
LINE
  5
3AC
  8
1
  6
CONTINUOUS
 10
986.73994445800724
 20
1485.2398910522461
 30
0.0
 11
1025.7398071289069
 21
1485.2398910522461
 31
0.0
  0
LINE
  5
3BD
  8
1
  6
CONTINUOUS
 10
986.73994445800724
 20
1466.239952087401
 30
0.0
 11
986.73994445800724
 21
1485.2398910522461
 31
0.0
  0
LINE
  5
3C1
  8
1
  6
CONTINUOUS
 10
1628.7679138183571
 20
1485.740074157716
 30
0.0
 11
1626.239990234378
 21
1485.740074157716
 31
0.0
  0
LINE
  5
3C5
  8
1
  6
CONTINUOUS
 10
1625.7398071289081
 20
1485.2398910522461
 30
0.0
 11
1625.7398071289081
 21
1466.2398757934609
 31
0.0
  0
LINE
  5
3FC
  8
1
  6
CONTINUOUS
 10
1025.7398071289069
 20
1466.239952087401
 30
0.0
 11
986.73994445800724
 21
1466.239952087401
 31
0.0
  0
LINE
  5
40B
  8
1
  6
CONTINUOUS
 10
1645.2399291992169
 20
1026.2400283813461
 30
0.0
 11
1626.239990234378
 21
1026.2400283813461
 31
0.0
  0
LINE
  5
410
  8
1
  6
CONTINUOUS
 10
1625.7398071289081
 20
1026.2400283813461
 30
0.0
 11
1586.739868164062
 21
1026.2400283813461
 31
0.0
  0
LINE
  5
422
  8
1
  6
CONTINUOUS
 10
1476.2398376464821
 20
1705.4901351928711
 30
0.0
 11
1489.7398986816429
 21
1705.4901351928711
 31
0.0
  0
LINE
  5
423
  8
1
  6
CONTINUOUS
 10
1489.7398986816429
 20
1705.4901351928711
 30
0.0
 11
1489.7398986816429
 21
1645.4899826049809
 31
0.0
  0
LINE
  5
425
  8
1
  6
CONTINUOUS
 10
1489.7398986816429
 20
1645.4899826049809
 30
0.0
 11
1476.2398376464821
 21
1645.4899826049809
 31
0.0
  0
LINE
  5
429
  8
1
  6
CONTINUOUS
 10
1476.2398376464821
 20
1645.4899826049809
 30
0.0
 11
1476.2398376464821
 21
1705.4901351928711
 31
0.0
  0
LINE
  5
42A
  8
1
  6
CONTINUOUS
 10
986.23991394042741
 20
1007.240013122561
 30
0.0
 11
986.23991394042741
 21
1026.2400283813461
 31
0.0
  0
LINE
  5
42B
  8
1
  6
CONTINUOUS
 10
1085.2399291992169
 20
1007.240013122561
 30
0.0
 11
1085.2399291992169
 21
1026.2400283813461
 31
0.0
  0
LINE
  5
42D
  8
1
  6
CONTINUOUS
 10
967.23982238769725
 20
1007.240013122561
 30
0.0
 11
986.23991394042741
 21
1007.240013122561
 31
0.0
  0
LINE
  5
42F
  8
1
  6
CONTINUOUS
 10
1489.7398986816429
 20
1515.4899826049809
 30
0.0
 11
1476.2398376464821
 21
1515.4899826049809
 31
0.0
  0
LINE
  5
430
  8
1
  6
CONTINUOUS
 10
1476.2398376464821
 20
1575.4899826049809
 30
0.0
 11
1489.7398986816429
 21
1575.4899826049809
 31
0.0
  0
LINE
  5
431
  8
1
  6
CONTINUOUS
 10
1476.2398376464821
 20
1515.4899826049809
 30
0.0
 11
1476.2398376464821
 21
1575.4899826049809
 31
0.0
  0
LINE
  5
432
  8
1
  6
CONTINUOUS
 10
967.23982238769725
 20
1026.2400283813461
 30
0.0
 11
967.23982238769725
 21
1007.240013122561
 31
0.0
  0
LINE
  5
433
  8
1
  6
CONTINUOUS
 10
1489.7398986816429
 20
1575.4899826049809
 30
0.0
 11
1489.7398986816429
 21
1515.4899826049809
 31
0.0
  0
LINE
  5
47D
  8
1
  6
CONTINUOUS
 10
1645.2399291992169
 20
2024.2399826049809
 30
0.0
 11
1645.2399291992169
 21
2005.240043640136
 31
0.0
  0
LINE
  5
49C
  8
1
  6
CONTINUOUS
 10
967.23982238769725
 20
2005.240043640136
 30
0.0
 11
967.23982238769725
 21
2024.2399826049809
 31
0.0
  0
LINE
  5
49E
  8
1
  6
CONTINUOUS
 62
     5
 10
826.73986816406239
 20
2027.2400131225611
 30
0.0
 11
1648.2398071289069
 21
2027.2400131225611
 31
0.0
  0
LINE
  5
4B2
  8
1
  6
CONTINUOUS
 10
1626.239990234378
 20
2005.240043640136
 30
0.0
 11
1645.2399291992169
 21
2005.240043640136
 31
0.0
  0
LINE
  5
4C5
  8
1
  6
CONTINUOUS
 10
1626.239990234378
 20
1485.740074157716
 30
0.0
 11
1626.239990234378
 21
2004.740013122562
 31
0.0
  0
LINE
  5
4ED
  8
1
  6
CONTINUOUS
 10
1626.239990234378
 20
2004.7400131225611
 30
0.0
 11
1645.2399291992169
 21
2004.7400131225611
 31
0.0
  0
LINE
  5
4F1
  8
1
  6
CONTINUOUS
 10
1625.7398071289081
 20
2024.2399826049809
 30
0.0
 11
1625.7398071289081
 21
2005.240043640136
 31
0.0
  0
LINE
  5
4FA
  8
1
  6
CONTINUOUS
 10
1625.7398071289081
 20
2005.240043640136
 30
0.0
 11
967.23982238769725
 21
2005.240043640136
 31
0.0
  0
LINE
  5
505
  8
1
  6
CONTINUOUS
 10
1645.2399291992169
 20
1485.740074157716
 30
0.0
 11
1626.239990234378
 21
1485.740074157716
 31
0.0
  0
LINE
  5
537
  8
1
  6
CONTINUOUS
 10
1645.2399291992169
 20
2024.2399826049809
 30
0.0
 11
1626.239990234378
 21
2024.2399826049809
 31
0.0
  0
LINE
  5
53A
  8
1
  6
CONTINUOUS
 10
1645.2399291992169
 20
1026.740058898926
 30
0.0
 11
1626.239990234378
 21
1026.740058898926
 31
0.0
  0
LINE
  5
63C
  8
1
  6
CONTINUOUS
 10
986.23991394042741
 20
1006.73998260498
 30
0.0
 11
986.23991394042741
 21
887.74004364013615
 31
0.0
  0
LINE
  5
63F
  8
1
  6
CONTINUOUS
 10
1626.239990234378
 20
647.74004364013604
 30
0.0
 11
1626.239990234378
 21
1006.739982604981
 31
0.0
  0
LINE
  5
642
  8
1
  6
CONTINUOUS
 10
1645.2399291992169
 20
647.74004364013604
 30
0.0
 11
1626.239990234378
 21
647.74004364013604
 31
0.0
  0
LINE
  5
658
  8
1
  6
CONTINUOUS
 10
1626.239990234378
 20
1006.739982604981
 30
0.0
 11
1645.2399291992169
 21
1006.739982604981
 31
0.0
  0
LINE
  5
65A
  8
1
  6
CONTINUOUS
 10
967.23982238769725
 20
1006.739982604981
 30
0.0
 11
986.23991394042741
 21
1006.739982604981
 31
0.0
  0
LINE
  5
699
  8
1
  6
CONTINUOUS
 10
967.23982238769725
 20
2024.2399826049809
 30
0.0
 11
1625.7398071289081
 21
2024.2399826049809
 31
0.0
  0
LINE
  5
72E
  8
1
  6
CONTINUOUS
 10
1626.239990234378
 20
2024.2399826049809
 30
0.0
 11
1626.239990234378
 21
2005.240043640136
 31
0.0
  0
LINE
  5
735
  8
CENTERLINE
  6
CENTER
 10
400.91297571604071
 20
2014.7400131225611
 30
0.0
 11
1835.7398071289069
 21
2014.7400131225611
 31
0.0
  0
LINE
  5
736
  8
CENTERLINE
  6
CENTER
 10
400.91297571604071
 20
1475.739921569826
 30
0.0
 11
1835.7398071289069
 21
1475.739921569826
 31
0.0
  0
LINE
  5
737
  8
CENTERLINE
  6
CENTER
 10
400.91297571604071
 20
637.74004364013615
 30
0.0
 11
1835.7398071289069
 21
637.74004364013604
 31
0.0
  0
LINE
  5
739
  8
CENTERLINE
  6
CENTER
 10
1635.7399597167971
 20
2330.037296508031
 30
0.0
 11
1635.7399597167971
 21
437.74000549316401
 31
0.0
  0
LINE
  5
73A
  8
CENTERLINE
  6
CENTER
 10
400.91297571604071
 20
1016.740058898926
 30
0.0
 11
1835.7398071289069
 21
1016.740058898926
 31
0.0
  0
LINE
  5
73B
  8
CENTERLINE
  6
CENTER
 10
3494.7400512695331
 20
2330.037296508031
 30
0.0
 11
3494.7400512695331
 21
437.74000549316401
 31
0.0
  0
LINE
  5
73C
  8
CENTERLINE
  6
CENTER
 10
2835.7398071289072
 20
2330.037296508031
 30
0.0
 11
2835.7398071289072
 21
437.74000549316401
 31
0.0
  0
LINE
  5
73D
  8
CENTERLINE
  6
CENTER
 10
2308.71296350901
 20
2014.7400131225611
 30
0.0
 11
3694.7397460937518
 21
2014.7400131225611
 31
0.0
  0
LINE
  5
73E
  8
CENTERLINE
  6
CENTER
 10
2308.71296350901
 20
1475.739921569826
 30
0.0
 11
3694.7397460937518
 21
1475.739921569826
 31
0.0
  0
LINE
  5
73F
  8
CENTERLINE
  6
CENTER
 10
2308.71296350901
 20
1016.740058898926
 30
0.0
 11
3694.7397460937518
 21
1016.740058898926
 31
0.0
  0
LINE
  5
740
  8
CENTERLINE
  6
CENTER
 10
2308.71296350901
 20
637.74004364013604
 30
0.0
 11
3694.7397460937518
 21
637.74004364013604
 31
0.0
  0
POLYLINE
  5
741
  8
4
  6
DASHED1
 66
     1
 10
0.0
 20
0.0
 30
0.0
  0
VERTEX
  5
11D0
  8
4
  6
DASHED1
 10
1200.9625854492169
 20
1701.638511657716
 30
0.0
  0
VERTEX
  5
11D1
  8
4
  6
DASHED1
 10
1181.5673675537121
 20
1701.7614974975611
 30
0.0
  0
VERTEX
  5
11D2
  8
4
  6
DASHED1
 10
1161.109298706052
 20
1701.786216735841
 30
0.0
  0
VERTEX
  5
11D3
  8
4
  6
DASHED1
 10
1146.979660034177
 20
1701.565116882326
 30
0.0
  0
VERTEX
  5
11D4
  8
4
  6
DASHED1
 10
1139.942764282227
 20
1699.6258773803711
 30
0.0
  0
VERTEX
  5
11D5
  8
4
  6
DASHED1
 10
1135.5147399902321
 20
1695.8702316284159
 30
0.0
  0
VERTEX
  5
11D6
  8
4
  6
DASHED1
 10
1133.212036132812
 20
1692.212852478026
 30
0.0
  0
VERTEX
  5
11D7
  8
4
  6
DASHED1
 10
1132.5518646240221
 20
1690.5681076049809
 30
0.0
  0
VERTEX
  5
11D8
  8
4
  6
DASHED1
 10
1133.212036132812
 20
1692.212852478026
 30
0.0
  0
SEQEND
  5
11D9
  8
4
  6
DASHED1
  0
POLYLINE
  5
74C
  8
4
  6
DASHED1
 66
     1
 10
0.0
 20
0.0
 30
0.0
  0
VERTEX
  5
11DA
  8
4
  6
DASHED1
 10
1223.787750244142
 20
1697.5885238647461
 30
0.0
  0
VERTEX
  5
11DB
  8
4
  6
DASHED1
 10
1220.535034179687
 20
1699.8633041381811
 30
0.0
  0
VERTEX
  5
11DC
  8
4
  6
DASHED1
 10
1216.3161315917971
 20
1701.1560287475611
 30
0.0
  0
VERTEX
  5
11DD
  8
4
  6
DASHED1
 10
1211.9041290283219
 20
1701.565116882326
 30
0.0
  0
VERTEX
  5
11DE
  8
4
  6
DASHED1
 10
1216.3161315917971
 20
1701.1560287475611
 30
0.0
  0
SEQEND
  5
11DF
  8
4
  6
DASHED1
  0
POLYLINE
  5
753
  8
4
  6
DASHED1
 66
     1
 10
0.0
 20
0.0
 30
0.0
  0
VERTEX
  5
11E0
  8
4
  6
DASHED1
 10
1200.9625854492169
 20
1518.213066101076
 30
0.0
  0
VERTEX
  5
11E1
  8
4
  6
DASHED1
 10
1181.5673675537121
 20
1518.0902328491211
 30
0.0
  0
VERTEX
  5
11E2
  8
4
  6
DASHED1
 10
1161.109298706052
 20
1518.0658187866211
 30
0.0
  0
VERTEX
  5
11E3
  8
4
  6
DASHED1
 10
1146.979660034177
 20
1518.2866134643559
 30
0.0
  0
VERTEX
  5
11E4
  8
4
  6
DASHED1
 10
1139.942764282227
 20
1520.2257003784159
 30
0.0
  0
VERTEX
  5
11E5
  8
4
  6
DASHED1
 10
1135.5147399902321
 20
1523.9813461303711
 30
0.0
  0
VERTEX
  5
11E6
  8
4
  6
DASHED1
 10
1133.212036132812
 20
1527.638877868651
 30
0.0
  0
VERTEX
  5
11E7
  8
4
  6
DASHED1
 10
1132.5518646240221
 20
1529.283164978026
 30
0.0
  0
VERTEX
  5
11E8
  8
4
  6
DASHED1
 10
1133.212036132812
 20
1527.638877868651
 30
0.0
  0
SEQEND
  5
11E9
  8
4
  6
DASHED1
  0
POLYLINE
  5
75E
  8
4
  6
DASHED1
 66
     1
 10
0.0
 20
0.0
 30
0.0
  0
VERTEX
  5
11EA
  8
4
  6
DASHED1
 10
1223.787750244142
 20
1522.2632064819361
 30
0.0
  0
VERTEX
  5
11EB
  8
4
  6
DASHED1
 10
1220.535034179687
 20
1519.988578796386
 30
0.0
  0
VERTEX
  5
11EC
  8
4
  6
DASHED1
 10
1216.3161315917971
 20
1518.695854187011
 30
0.0
  0
VERTEX
  5
11ED
  8
4
  6
DASHED1
 10
1211.9041290283219
 20
1518.2866134643559
 30
0.0
  0
VERTEX
  5
11EE
  8
4
  6
DASHED1
 10
1216.3161315917971
 20
1518.695854187011
 30
0.0
  0
SEQEND
  5
11EF
  8
4
  6
DASHED1
  0
POLYLINE
  5
765
  8
4
  6
DASHED1
 66
     1
 10
0.0
 20
0.0
 30
0.0
  0
VERTEX
  5
11F0
  8
4
  6
DASHED1
 10
1465.298217773437
 20
1701.638511657716
 30
0.0
  0
VERTEX
  5
11F1
  8
4
  6
DASHED1
 10
1445.903076171872
 20
1701.7614974975611
 30
0.0
  0
VERTEX
  5
11F2
  8
4
  6
DASHED1
 10
1425.4451599121071
 20
1701.786216735841
 30
0.0
  0
VERTEX
  5
11F3
  8
4
  6
DASHED1
 10
1411.3153686523419
 20
1701.565116882326
 30
0.0
  0
VERTEX
  5
11F4
  8
4
  6
DASHED1
 10
1404.520172119142
 20
1700.116905212401
 30
0.0
  0
VERTEX
  5
11F5
  8
4
  6
DASHED1
 10
1400.6233825683571
 20
1697.4412765502909
 30
0.0
  0
VERTEX
  5
11F6
  8
4
  6
DASHED1
 10
1398.8521423339821
 20
1694.864067077636
 30
0.0
  0
VERTEX
  5
11F7
  8
4
  6
DASHED1
 10
1398.4334411621071
 20
1693.7103500366211
 30
0.0
  0
VERTEX
  5
11F8
  8
4
  6
DASHED1
 10
1398.8521423339821
 20
1694.864067077636
 30
0.0
  0
SEQEND
  5
11F9
  8
4
  6
DASHED1
  0
POLYLINE
  5
770
  8
4
  6
DASHED1
 66
     1
 10
0.0
 20
0.0
 30
0.0
  0
VERTEX
  5
11FA
  8
4
  6
DASHED1
 10
1488.123535156247
 20
1697.5885238647461
 30
0.0
  0
VERTEX
  5
11FB
  8
4
  6
DASHED1
 10
1484.8708190917971
 20
1699.8633041381811
 30
0.0
  0
VERTEX
  5
11FC
  8
4
  6
DASHED1
 10
1480.6519165039081
 20
1701.1560287475611
 30
0.0
  0
VERTEX
  5
11FD
  8
4
  6
DASHED1
 10
1476.2398376464821
 20
1701.565116882326
 30
0.0
  0
VERTEX
  5
11FE
  8
4
  6
DASHED1
 10
1480.6519165039081
 20
1701.1560287475611
 30
0.0
  0
SEQEND
  5
11FF
  8
4
  6
DASHED1
  0
POLYLINE
  5
777
  8
4
  6
DASHED1
 66
     1
 10
0.0
 20
0.0
 30
0.0
  0
VERTEX
  5
1200
  8
4
  6
DASHED1
 10
1465.298217773437
 20
1518.213066101076
 30
0.0
  0
VERTEX
  5
1201
  8
4
  6
DASHED1
 10
1445.903076171872
 20
1518.0902328491211
 30
0.0
  0
VERTEX
  5
1202
  8
4
  6
DASHED1
 10
1425.4451599121071
 20
1518.0658187866211
 30
0.0
  0
VERTEX
  5
1203
  8
4
  6
DASHED1
 10
1411.3153686523419
 20
1518.2866134643559
 30
0.0
  0
VERTEX
  5
1204
  8
4
  6
DASHED1
 10
1404.761718750002
 20
1519.653038024901
 30
0.0
  0
VERTEX
  5
1205
  8
4
  6
DASHED1
 10
1401.396240234377
 20
1522.148612976076
 30
0.0
  0
VERTEX
  5
1206
  8
4
  6
DASHED1
 10
1400.1563110351569
 20
1524.5459213256861
 30
0.0
  0
VERTEX
  5
1207
  8
4
  6
DASHED1
 10
1399.9793090820319
 20
1525.6176986694311
 30
0.0
  0
VERTEX
  5
1208
  8
4
  6
DASHED1
 10
1400.1563110351569
 20
1524.5459213256861
 30
0.0
  0
SEQEND
  5
1209
  8
4
  6
DASHED1
  0
POLYLINE
  5
782
  8
4
  6
DASHED1
 66
     1
 10
0.0
 20
0.0
 30
0.0
  0
VERTEX
  5
120A
  8
4
  6
DASHED1
 10
1488.123535156247
 20
1522.2632064819361
 30
0.0
  0
VERTEX
  5
120B
  8
4
  6
DASHED1
 10
1484.8708190917971
 20
1519.988578796386
 30
0.0
  0
VERTEX
  5
120C
  8
4
  6
DASHED1
 10
1480.6519165039081
 20
1518.695854187011
 30
0.0
  0
VERTEX
  5
120D
  8
4
  6
DASHED1
 10
1476.2398376464821
 20
1518.2866134643559
 30
0.0
  0
VERTEX
  5
120E
  8
4
  6
DASHED1
 10
1480.6519165039081
 20
1518.695854187011
 30
0.0
  0
SEQEND
  5
120F
  8
4
  6
DASHED1
  0
POLYLINE
  5
797
  8
4
  6
DASHED1
 66
     1
 10
0.0
 20
0.0
 30
0.0
  0
VERTEX
  5
1210
  8
4
  6
DASHED1
 10
1263.2222595214821
 20
1548.511070251466
 30
0.0
  0
VERTEX
  5
1211
  8
4
  6
DASHED1
 10
1249.9056091308571
 20
1544.6002426147461
 30
0.0
  0
VERTEX
  5
1212
  8
4
  6
DASHED1
 10
1237.1686401367169
 20
1540.885337829591
 30
0.0
  0
VERTEX
  5
1213
  8
4
  6
DASHED1
 10
1231.4845886230471
 20
1539.232353210451
 30
0.0
  0
VERTEX
  5
1214
  8
4
  6
DASHED1
 10
1228.2672729492169
 20
1546.855033874511
 30
0.0
  0
VERTEX
  5
1215
  8
4
  6
DASHED1
 10
1225.550903320312
 20
1555.735801696776
 30
0.0
  0
VERTEX
  5
1216
  8
4
  6
DASHED1
 10
1223.305572509767
 20
1565.5125656127909
 30
0.0
  0
VERTEX
  5
1217
  8
4
  6
DASHED1
 10
1221.5010681152321
 20
1575.823081970216
 30
0.0
  0
VERTEX
  5
1218
  8
4
  6
DASHED1
 10
1220.107177734377
 20
1586.305259704591
 30
0.0
  0
VERTEX
  5
1219
  8
4
  6
DASHED1
 10
1219.0938415527321
 20
1596.5971603393559
 30
0.0
  0
VERTEX
  5
121A
  8
4
  6
DASHED1
 10
1218.430541992187
 20
1606.336997985841
 30
0.0
  0
VERTEX
  5
121B
  8
4
  6
DASHED1
 10
1218.087524414062
 20
1615.1622238159159
 30
0.0
  0
VERTEX
  5
121C
  8
4
  6
DASHED1
 10
1219.2145385742169
 20
1633.547538757326
 30
0.0
  0
VERTEX
  5
121D
  8
4
  6
DASHED1
 10
1222.4672546386721
 20
1653.061698913576
 30
0.0
  0
VERTEX
  5
121E
  8
4
  6
DASHED1
 10
1226.492828369142
 20
1669.728569030761
 30
0.0
  0
VERTEX
  5
121F
  8
4
  6
DASHED1
 10
1229.9388732910179
 20
1679.5715560913111
 30
0.0
  0
VERTEX
  5
1220
  8
4
  6
DASHED1
 10
1226.492828369142
 20
1669.728569030761
 30
0.0
  0
SEQEND
  5
1221
  8
4
  6
DASHED1
  0
POLYLINE
  5
7AA
  8
4
  6
DASHED1
 66
     1
 10
0.0
 20
0.0
 30
0.0
  0
VERTEX
  5
1222
  8
4
  6
DASHED1
 10
1270.653442382812
 20
1650.7953109741211
 30
0.0
  0
VERTEX
  5
1223
  8
4
  6
DASHED1
 10
1268.6487426757831
 20
1640.232109069826
 30
0.0
  0
VERTEX
  5
1224
  8
4
  6
DASHED1
 10
1267.1269836425779
 20
1627.6072921752909
 30
0.0
  0
VERTEX
  5
1225
  8
4
  6
DASHED1
 10
1266.523193359377
 20
1614.638847351076
 30
0.0
  0
VERTEX
  5
1226
  8
4
  6
DASHED1
 10
1267.5215759277321
 20
1600.1892318725611
 30
0.0
  0
VERTEX
  5
1227
  8
4
  6
DASHED1
 10
1269.8723449707029
 20
1584.2669906616211
 30
0.0
  0
VERTEX
  5
1228
  8
4
  6
DASHED1
 10
1272.609771728517
 20
1570.3082504272461
 30
0.0
  0
VERTEX
  5
1229
  8
4
  6
DASHED1
 10
1274.7676696777321
 20
1561.7497482299809
 30
0.0
  0
VERTEX
  5
122A
  8
4
  6
DASHED1
 10
1275.4277648925779
 20
1557.527793884276
 30
0.0
  0
VERTEX
  5
122B
  8
4
  6
DASHED1
 10
1274.6387329101581
 20
1554.2875900268559
 30
0.0
  0
VERTEX
  5
122C
  8
4
  6
DASHED1
 10
1272.883666992187
 20
1552.029594421386
 30
0.0
  0
VERTEX
  5
122D
  8
4
  6
DASHED1
 10
1270.645507812502
 20
1550.752891540526
 30
0.0
  0
VERTEX
  5
122E
  8
4
  6
DASHED1
 10
1272.883666992187
 20
1552.029594421386
 30
0.0
  0
SEQEND
  5
122F
  8
4
  6
DASHED1
  0
POLYLINE
  5
7B9
  8
4
  6
DASHED1
 66
     1
 10
0.0
 20
0.0
 30
0.0
  0
VERTEX
  5
1230
  8
4
  6
DASHED1
 10
1235.5342712402321
 20
1678.2379379272461
 30
0.0
  0
VERTEX
  5
1231
  8
4
  6
DASHED1
 10
1248.037628173827
 20
1675.185874938966
 30
0.0
  0
VERTEX
  5
1232
  8
4
  6
DASHED1
 10
1261.0242309570319
 20
1671.8396224975611
 30
0.0
  0
VERTEX
  5
1233
  8
4
  6
DASHED1
 10
1268.0690612792971
 20
1669.622367858886
 30
0.0
  0
VERTEX
  5
1234
  8
4
  6
DASHED1
 10
1270.242828369142
 20
1667.887901306151
 30
0.0
  0
VERTEX
  5
1235
  8
4
  6
DASHED1
 10
1272.3201599121071
 20
1665.1713790893559
 30
0.0
  0
VERTEX
  5
1236
  8
4
  6
DASHED1
 10
1273.431152343747
 20
1661.6693344116211
 30
0.0
  0
VERTEX
  5
1237
  8
4
  6
DASHED1
 10
1272.7065124511721
 20
1657.578300476076
 30
0.0
  0
VERTEX
  5
1238
  8
4
  6
DASHED1
 10
1273.431152343747
 20
1661.6693344116211
 30
0.0
  0
SEQEND
  5
1239
  8
4
  6
DASHED1
  0
POLYLINE
  5
7C4
  8
4
  6
DASHED1
 66
     1
 10
0.0
 20
0.0
 30
0.0
  0
VERTEX
  5
123A
  8
4
  6
DASHED1
 10
1207.6067962646471
 20
1662.9181137084961
 30
0.0
  0
VERTEX
  5
123B
  8
4
  6
DASHED1
 10
1205.8335723876969
 20
1645.8697738647461
 30
0.0
  0
VERTEX
  5
123C
  8
4
  6
DASHED1
 10
1204.9056091308571
 20
1626.8701400756861
 30
0.0
  0
VERTEX
  5
123D
  8
4
  6
DASHED1
 10
1204.690231323242
 20
1606.980308532716
 30
0.0
  0
VERTEX
  5
123E
  8
4
  6
DASHED1
 10
1205.054534912108
 20
1587.262748718261
 30
0.0
  0
VERTEX
  5
123F
  8
4
  6
DASHED1
 10
1205.865615844727
 20
1568.7780990600561
 30
0.0
  0
VERTEX
  5
1240
  8
4
  6
DASHED1
 10
1206.9907989501969
 20
1552.588829040526
 30
0.0
  0
VERTEX
  5
1241
  8
4
  6
DASHED1
 10
1208.297256469727
 20
1539.756034851076
 30
0.0
  0
VERTEX
  5
1242
  8
4
  6
DASHED1
 10
1206.9907989501969
 20
1552.588829040526
 30
0.0
  0
SEQEND
  5
1243
  8
4
  6
DASHED1
  0
POLYLINE
  5
7CF
  8
4
  6
DASHED1
 66
     1
 10
0.0
 20
0.0
 30
0.0
  0
VERTEX
  5
1244
  8
4
  6
DASHED1
 10
1118.639434814452
 20
1675.906089782716
 30
0.0
  0
VERTEX
  5
1245
  8
4
  6
DASHED1
 10
1129.6996917724621
 20
1679.2350997924809
 30
0.0
  0
VERTEX
  5
1246
  8
4
  6
DASHED1
 10
1144.5158233642569
 20
1681.821617126466
 30
0.0
  0
VERTEX
  5
1247
  8
4
  6
DASHED1
 10
1161.6265716552721
 20
1683.7578048706059
 30
0.0
  0
VERTEX
  5
1248
  8
4
  6
DASHED1
 10
1179.5707550048819
 20
1685.1353683471659
 30
0.0
  0
VERTEX
  5
1249
  8
4
  6
DASHED1
 10
1196.886734008787
 20
1686.0467758178711
 30
0.0
  0
VERTEX
  5
124A
  8
4
  6
DASHED1
 10
1212.1134796142569
 20
1686.5837326049809
 30
0.0
  0
VERTEX
  5
124B
  8
4
  6
DASHED1
 10
1223.7897338867169
 20
1686.8384017944311
 30
0.0
  0
VERTEX
  5
124C
  8
4
  6
DASHED1
 10
1230.4541625976569
 20
1686.902793884276
 30
0.0
  0
VERTEX
  5
124D
  8
4
  6
DASHED1
 10
1223.7897338867169
 20
1686.8384017944311
 30
0.0
  0
SEQEND
  5
124E
  8
4
  6
DASHED1
  0
POLYLINE
  5
7DB
  8
4
  6
DASHED1
 66
     1
 10
0.0
 20
0.0
 30
0.0
  0
VERTEX
  5
124F
  8
4
  6
DASHED1
 10
1123.7872161865221
 20
1642.740043640136
 30
0.0
  0
VERTEX
  5
1250
  8
4
  6
DASHED1
 10
1134.7015228271471
 20
1644.6177902221659
 30
0.0
  0
VERTEX
  5
1251
  8
4
  6
DASHED1
 10
1148.2607116699221
 20
1646.0046615600561
 30
0.0
  0
VERTEX
  5
1252
  8
4
  6
DASHED1
 10
1162.8886260986319
 20
1646.974205017091
 30
0.0
  0
VERTEX
  5
1253
  8
4
  6
DASHED1
 10
1177.009414672852
 20
1647.600273132326
 30
0.0
  0
VERTEX
  5
1254
  8
4
  6
DASHED1
 10
1189.046768188477
 20
1647.956260681151
 30
0.0
  0
VERTEX
  5
1255
  8
4
  6
DASHED1
 10
1197.425064086912
 20
1648.1157150268559
 30
0.0
  0
VERTEX
  5
1256
  8
4
  6
DASHED1
 10
1200.5680694580069
 20
1648.152641296386
 30
0.0
  0
VERTEX
  5
1257
  8
4
  6
DASHED1
 10
1197.425064086912
 20
1648.1157150268559
 30
0.0
  0
SEQEND
  5
1258
  8
4
  6
DASHED1
  0
POLYLINE
  5
7E6
  8
4
  6
DASHED1
 66
     1
 10
0.0
 20
0.0
 30
0.0
  0
VERTEX
  5
1259
  8
4
  6
DASHED1
 10
1118.639434814452
 20
1542.8979721069361
 30
0.0
  0
VERTEX
  5
125A
  8
4
  6
DASHED1
 10
1129.6996917724621
 20
1539.569267272951
 30
0.0
  0
VERTEX
  5
125B
  8
4
  6
DASHED1
 10
1144.5158233642569
 20
1536.982749938966
 30
0.0
  0
VERTEX
  5
125C
  8
4
  6
DASHED1
 10
1161.6265716552721
 20
1535.0464096069361
 30
0.0
  0
VERTEX
  5
125D
  8
4
  6
DASHED1
 10
1179.5707550048819
 20
1533.668998718261
 30
0.0
  0
VERTEX
  5
125E
  8
4
  6
DASHED1
 10
1196.886734008787
 20
1532.7575912475611
 30
0.0
  0
VERTEX
  5
125F
  8
4
  6
DASHED1
 10
1212.1134796142569
 20
1532.2209396362309
 30
0.0
  0
VERTEX
  5
1260
  8
4
  6
DASHED1
 10
1223.7897338867169
 20
1531.9659652709961
 30
0.0
  0
VERTEX
  5
1261
  8
4
  6
DASHED1
 10
1230.4541625976569
 20
1531.9017257690409
 30
0.0
  0
VERTEX
  5
1262
  8
4
  6
DASHED1
 10
1223.7897338867169
 20
1531.9659652709961
 30
0.0
  0
SEQEND
  5
1263
  8
4
  6
DASHED1
  0
POLYLINE
  5
7F2
  8
4
  6
DASHED1
 66
     1
 10
0.0
 20
0.0
 30
0.0
  0
VERTEX
  5
1264
  8
4
  6
DASHED1
 10
1123.7872161865221
 20
1576.0643234252909
 30
0.0
  0
VERTEX
  5
1265
  8
4
  6
DASHED1
 10
1134.7015228271471
 20
1574.186576843261
 30
0.0
  0
VERTEX
  5
1266
  8
4
  6
DASHED1
 10
1148.2607116699221
 20
1572.799858093261
 30
0.0
  0
VERTEX
  5
1267
  8
4
  6
DASHED1
 10
1162.8886260986319
 20
1571.830162048341
 30
0.0
  0
VERTEX
  5
1268
  8
4
  6
DASHED1
 10
1177.009414672852
 20
1571.2040939331059
 30
0.0
  0
VERTEX
  5
1269
  8
4
  6
DASHED1
 10
1189.046768188477
 20
1570.8482589721659
 30
0.0
  0
VERTEX
  5
126A
  8
4
  6
DASHED1
 10
1197.425064086912
 20
1570.688652038576
 30
0.0
  0
VERTEX
  5
126B
  8
4
  6
DASHED1
 10
1200.5680694580069
 20
1570.6518783569361
 30
0.0
  0
VERTEX
  5
126C
  8
4
  6
DASHED1
 10
1197.425064086912
 20
1570.688652038576
 30
0.0
  0
SEQEND
  5
126D
  8
4
  6
DASHED1
  0
POLYLINE
  5
7FD
  8
4
  6
DASHED1
 66
     1
 10
0.0
 20
0.0
 30
0.0
  0
VERTEX
  5
126E
  8
4
  6
DASHED1
 10
1278.8899841308571
 20
1670.669731140136
 30
0.0
  0
VERTEX
  5
126F
  8
4
  6
DASHED1
 10
1332.4782409667971
 20
1669.622367858886
 30
0.0
  0
VERTEX
  5
1270
  8
4
  6
DASHED1
 10
1326.8103637695319
 20
1684.2846908569361
 30
0.0
  0
VERTEX
  5
1271
  8
4
  6
DASHED1
 10
1239.7292175292971
 20
1684.2846908569361
 30
0.0
  0
VERTEX
  5
1272
  8
4
  6
DASHED1
 10
1326.8103637695319
 20
1684.2846908569361
 30
0.0
  0
SEQEND
  5
1273
  8
4
  6
DASHED1
  0
POLYLINE
  5
804
  8
4
  6
DASHED1
 66
     1
 10
0.0
 20
0.0
 30
0.0
  0
VERTEX
  5
1274
  8
4
  6
DASHED1
 10
1409.2542114257819
 20
1684.2846908569361
 30
0.0
  0
VERTEX
  5
1275
  8
4
  6
DASHED1
 10
1395.8571472167971
 20
1671.7169418334961
 30
0.0
  0
VERTEX
  5
1276
  8
4
  6
DASHED1
 10
1346.390747070312
 20
1670.669731140136
 30
0.0
  0
VERTEX
  5
1277
  8
4
  6
DASHED1
 10
1343.2991638183571
 20
1684.2846908569361
 30
0.0
  0
VERTEX
  5
1278
  8
4
  6
DASHED1
 10
1346.390747070312
 20
1670.669731140136
 30
0.0
  0
SEQEND
  5
1279
  8
4
  6
DASHED1
  0
POLYLINE
  5
80B
  8
4
  6
DASHED1
 66
     1
 10
0.0
 20
0.0
 30
0.0
  0
VERTEX
  5
127A
  8
4
  6
DASHED1
 10
1418.5291137695331
 20
1671.7169418334961
 30
0.0
  0
VERTEX
  5
127B
  8
4
  6
DASHED1
 10
1498.9119567871071
 20
1671.193412780761
 30
0.0
  0
VERTEX
  5
127C
  8
4
  6
DASHED1
 10
1517.461914062497
 20
1683.7608566284159
 30
0.0
  0
VERTEX
  5
127D
  8
4
  6
DASHED1
 10
1432.956909179687
 20
1683.7608566284159
 30
0.0
  0
VERTEX
  5
127E
  8
4
  6
DASHED1
 10
1517.461914062497
 20
1683.7608566284159
 30
0.0
  0
SEQEND
  5
127F
  8
4
  6
DASHED1
  0
POLYLINE
  5
812
  8
4
  6
DASHED1
 66
     1
 10
0.0
 20
0.0
 30
0.0
  0
VERTEX
  5
1280
  8
4
  6
DASHED1
 10
1278.8899841308571
 20
1549.1819992065409
 30
0.0
  0
VERTEX
  5
1281
  8
4
  6
DASHED1
 10
1332.4782409667971
 20
1550.2293624877909
 30
0.0
  0
VERTEX
  5
1282
  8
4
  6
DASHED1
 10
1326.8103637695319
 20
1535.567192077636
 30
0.0
  0
VERTEX
  5
1283
  8
4
  6
DASHED1
 10
1239.7292175292971
 20
1535.567192077636
 30
0.0
  0
VERTEX
  5
1284
  8
4
  6
DASHED1
 10
1326.8103637695319
 20
1535.567192077636
 30
0.0
  0
SEQEND
  5
1285
  8
4
  6
DASHED1
  0
POLYLINE
  5
819
  8
4
  6
DASHED1
 66
     1
 10
0.0
 20
0.0
 30
0.0
  0
VERTEX
  5
1286
  8
4
  6
DASHED1
 10
1409.2542114257819
 20
1535.567192077636
 30
0.0
  0
VERTEX
  5
1287
  8
4
  6
DASHED1
 10
1395.8571472167971
 20
1548.1346359252909
 30
0.0
  0
VERTEX
  5
1288
  8
4
  6
DASHED1
 10
1346.390747070312
 20
1549.1819992065409
 30
0.0
  0
VERTEX
  5
1289
  8
4
  6
DASHED1
 10
1343.2991638183571
 20
1535.567192077636
 30
0.0
  0
VERTEX
  5
128A
  8
4
  6
DASHED1
 10
1346.390747070312
 20
1549.1819992065409
 30
0.0
  0
SEQEND
  5
128B
  8
4
  6
DASHED1
  0
POLYLINE
  5
820
  8
4
  6
DASHED1
 66
     1
 10
0.0
 20
0.0
 30
0.0
  0
VERTEX
  5
128C
  8
4
  6
DASHED1
 10
1418.5291137695331
 20
1548.1346359252909
 30
0.0
  0
VERTEX
  5
128D
  8
4
  6
DASHED1
 10
1498.9119567871071
 20
1548.6583175659159
 30
0.0
  0
VERTEX
  5
128E
  8
4
  6
DASHED1
 10
1517.461914062497
 20
1536.090873718261
 30
0.0
  0
VERTEX
  5
128F
  8
4
  6
DASHED1
 10
1432.956909179687
 20
1536.090873718261
 30
0.0
  0
VERTEX
  5
1290
  8
4
  6
DASHED1
 10
1517.461914062497
 20
1536.090873718261
 30
0.0
  0
SEQEND
  5
1291
  8
4
  6
DASHED1
  0
POLYLINE
  5
827
  8
4
  6
DASHED1
 66
     1
 10
0.0
 20
0.0
 30
0.0
  0
VERTEX
  5
1292
  8
4
  6
DASHED1
 10
1343.2991638183571
 20
1569.781669616701
 30
0.0
  0
VERTEX
  5
1293
  8
4
  6
DASHED1
 10
1342.8398742675779
 20
1567.4705734252909
 30
0.0
  0
VERTEX
  5
1294
  8
4
  6
DASHED1
 10
1341.587890625002
 20
1565.5835189819361
 30
0.0
  0
VERTEX
  5
1295
  8
4
  6
DASHED1
 10
1339.7307434082029
 20
1564.3109359741211
 30
0.0
  0
VERTEX
  5
1296
  8
4
  6
DASHED1
 10
1337.456573486327
 20
1563.844322204591
 30
0.0
  0
VERTEX
  5
1297
  8
4
  6
DASHED1
 10
1339.7307434082029
 20
1564.3109359741211
 30
0.0
  0
SEQEND
  5
1298
  8
4
  6
DASHED1
  0
POLYLINE
  5
82F
  8
4
  6
DASHED1
 66
     1
 10
0.0
 20
0.0
 30
0.0
  0
VERTEX
  5
1299
  8
4
  6
DASHED1
 10
1337.456573486327
 20
1656.530937194826
 30
0.0
  0
VERTEX
  5
129A
  8
4
  6
DASHED1
 10
1339.7307434082029
 20
1656.0644760131811
 30
0.0
  0
VERTEX
  5
129B
  8
4
  6
DASHED1
 10
1341.587890625002
 20
1654.792045593261
 30
0.0
  0
VERTEX
  5
129C
  8
4
  6
DASHED1
 10
1342.8398742675779
 20
1652.9046859741211
 30
0.0
  0
VERTEX
  5
129D
  8
4
  6
DASHED1
 10
1343.2991638183571
 20
1650.593589782716
 30
0.0
  0
VERTEX
  5
129E
  8
4
  6
DASHED1
 10
1342.8398742675779
 20
1652.9046859741211
 30
0.0
  0
SEQEND
  5
129F
  8
4
  6
DASHED1
  0
POLYLINE
  5
837
  8
4
  6
DASHED1
 66
     1
 10
0.0
 20
0.0
 30
0.0
  0
VERTEX
  5
12A0
  8
4
  6
DASHED1
 10
1290.2258911132819
 20
1650.593589782716
 30
0.0
  0
VERTEX
  5
12A1
  8
4
  6
DASHED1
 10
1290.6848754882819
 20
1652.9046859741211
 30
0.0
  0
VERTEX
  5
12A2
  8
4
  6
DASHED1
 10
1291.9371643066429
 20
1654.792045593261
 30
0.0
  0
VERTEX
  5
12A3
  8
4
  6
DASHED1
 10
1293.7941589355471
 20
1656.0644760131811
 30
0.0
  0
VERTEX
  5
12A4
  8
4
  6
DASHED1
 10
1296.068481445312
 20
1656.530937194826
 30
0.0
  0
VERTEX
  5
12A5
  8
4
  6
DASHED1
 10
1293.7941589355471
 20
1656.0644760131811
 30
0.0
  0
SEQEND
  5
12A6
  8
4
  6
DASHED1
  0
POLYLINE
  5
83F
  8
4
  6
DASHED1
 66
     1
 10
0.0
 20
0.0
 30
0.0
  0
VERTEX
  5
12A7
  8
4
  6
DASHED1
 10
1296.068481445312
 20
1563.844322204591
 30
0.0
  0
VERTEX
  5
12A8
  8
4
  6
DASHED1
 10
1293.7941589355471
 20
1564.3109359741211
 30
0.0
  0
VERTEX
  5
12A9
  8
4
  6
DASHED1
 10
1291.9371643066429
 20
1565.5835189819361
 30
0.0
  0
VERTEX
  5
12AA
  8
4
  6
DASHED1
 10
1290.6848754882819
 20
1567.4705734252909
 30
0.0
  0
VERTEX
  5
12AB
  8
4
  6
DASHED1
 10
1290.2258911132819
 20
1569.781669616701
 30
0.0
  0
VERTEX
  5
12AC
  8
4
  6
DASHED1
 10
1290.6848754882819
 20
1567.4705734252909
 30
0.0
  0
SEQEND
  5
12AD
  8
4
  6
DASHED1
  0
POLYLINE
  5
847
  8
4
  6
DASHED1
 66
     1
 10
0.0
 20
0.0
 30
0.0
  0
VERTEX
  5
12AE
  8
4
  6
DASHED1
 10
1519.523071289062
 20
1557.5604476928711
 30
0.0
  0
VERTEX
  5
12AF
  8
4
  6
DASHED1
 10
1537.0422973632831
 20
1538.7091293334961
 30
0.0
  0
VERTEX
  5
12B0
  8
4
  6
DASHED1
 10
1537.0422973632831
 20
1679.048179626466
 30
0.0
  0
VERTEX
  5
12B1
  8
4
  6
DASHED1
 10
1519.523071289062
 20
1661.7676010131811
 30
0.0
  0
VERTEX
  5
12B2
  8
4
  6
DASHED1
 10
1537.0422973632831
 20
1679.048179626466
 30
0.0
  0
SEQEND
  5
12B3
  8
4
  6
DASHED1
  0
POLYLINE
  5
84E
  8
4
  6
DASHED1
 66
     1
 10
0.0
 20
0.0
 30
0.0
  0
VERTEX
  5
12B4
  8
4
  6
DASHED1
 10
1509.0474548339821
 20
1562.147544860841
 30
0.0
  0
VERTEX
  5
12B5
  8
4
  6
DASHED1
 10
1508.919586181642
 20
1574.5219650268559
 30
0.0
  0
VERTEX
  5
12B6
  8
4
  6
DASHED1
 10
1508.828033447267
 20
1591.032432556151
 30
0.0
  0
VERTEX
  5
12B7
  8
4
  6
DASHED1
 10
1508.7666931152321
 20
1609.598564147951
 30
0.0
  0
VERTEX
  5
12B8
  8
4
  6
DASHED1
 10
1508.7293090820319
 20
1628.139976501466
 30
0.0
  0
VERTEX
  5
12B9
  8
4
  6
DASHED1
 10
1508.710235595702
 20
1644.577201843261
 30
0.0
  0
VERTEX
  5
12BA
  8
4
  6
DASHED1
 10
1508.703369140622
 20
1656.8286361694311
 30
0.0
  0
VERTEX
  5
12BB
  8
4
  6
DASHED1
 10
1508.702148437497
 20
1662.814659118651
 30
0.0
  0
VERTEX
  5
12BC
  8
4
  6
DASHED1
 10
1508.703369140622
 20
1656.8286361694311
 30
0.0
  0
SEQEND
  5
12BD
  8
4
  6
DASHED1
  0
POLYLINE
  5
859
  8
4
  6
DASHED1
 66
     1
 10
0.0
 20
0.0
 30
0.0
  0
VERTEX
  5
12BE
  8
4
  6
DASHED1
 10
1524.120239257812
 20
1662.3810043334961
 30
0.0
  0
VERTEX
  5
12BF
  8
4
  6
DASHED1
 10
1527.1877136230471
 20
1649.3962326049809
 30
0.0
  0
VERTEX
  5
12C0
  8
4
  6
DASHED1
 10
1529.772094726562
 20
1630.421928405761
 30
0.0
  0
VERTEX
  5
12C1
  8
4
  6
DASHED1
 10
1530.8589782714821
 20
1606.783775329591
 30
0.0
  0
VERTEX
  5
12C2
  8
4
  6
DASHED1
 10
1529.900878906247
 20
1584.095176696776
 30
0.0
  0
VERTEX
  5
12C3
  8
4
  6
DASHED1
 10
1527.4452819824221
 20
1567.051567077636
 30
0.0
  0
VERTEX
  5
12C4
  8
4
  6
DASHED1
 10
1524.120239257812
 20
1555.605033874511
 30
0.0
  0
VERTEX
  5
12C5
  8
4
  6
DASHED1
 10
1520.5536499023419
 20
1549.7058334350561
 30
0.0
  0
VERTEX
  5
12C6
  8
4
  6
DASHED1
 10
1516.8984069824221
 20
1548.0365219116211
 30
0.0
  0
VERTEX
  5
12C7
  8
4
  6
DASHED1
 10
1513.3397521972679
 20
1548.9201583862309
 30
0.0
  0
VERTEX
  5
12C8
  8
4
  6
DASHED1
 10
1510.553955078127
 20
1551.7676010131811
 30
0.0
  0
VERTEX
  5
12C9
  8
4
  6
DASHED1
 10
1509.2175903320319
 20
1555.989555358886
 30
0.0
  0
VERTEX
  5
12CA
  8
4
  6
DASHED1
 10
1510.553955078127
 20
1551.7676010131811
 30
0.0
  0
SEQEND
  5
12CB
  8
4
  6
DASHED1
  0
POLYLINE
  5
868
  8
4
  6
DASHED1
 66
     1
 10
0.0
 20
0.0
 30
0.0
  0
VERTEX
  5
12CC
  8
4
  6
DASHED1
 10
1510.1354064941429
 20
1668.3458175659159
 30
0.0
  0
VERTEX
  5
12CD
  8
4
  6
DASHED1
 10
1513.9839782714821
 20
1670.1457443237309
 30
0.0
  0
VERTEX
  5
12CE
  8
4
  6
DASHED1
 10
1518.4120788574221
 20
1669.5897140502909
 30
0.0
  0
VERTEX
  5
12CF
  8
4
  6
DASHED1
 10
1521.584228515622
 20
1668.0516281127909
 30
0.0
  0
VERTEX
  5
12D0
  8
4
  6
DASHED1
 10
1518.4120788574221
 20
1669.5897140502909
 30
0.0
  0
SEQEND
  5
12D1
  8
4
  6
DASHED1
  0
POLYLINE
  5
86F
  8
4
  6
DASHED1
 66
     1
 10
0.0
 20
0.0
 30
0.0
  0
VERTEX
  5
12D2
  8
4
  6
DASHED1
 10
1537.9842224121071
 20
1688.9647140502909
 30
0.0
  0
VERTEX
  5
12D3
  8
4
  6
DASHED1
 10
1533.9507141113279
 20
1693.7103500366211
 30
0.0
  0
VERTEX
  5
12D4
  8
4
  6
DASHED1
 10
1537.9842224121071
 20
1688.9647140502909
 30
0.0
  0
SEQEND
  5
12D5
  8
4
  6
DASHED1
  0
POLYLINE
  5
874
  8
4
  6
DASHED1
 66
     1
 10
0.0
 20
0.0
 30
0.0
  0
VERTEX
  5
12D6
  8
4
  6
DASHED1
 10
1541.6799011230471
 20
1677.4768295288061
 30
0.0
  0
VERTEX
  5
12D7
  8
4
  6
DASHED1
 10
1541.413940429687
 20
1679.277061462401
 30
0.0
  0
VERTEX
  5
12D8
  8
4
  6
DASHED1
 10
1540.3270568847679
 20
1683.629936218261
 30
0.0
  0
VERTEX
  5
12D9
  8
4
  6
DASHED1
 10
1541.413940429687
 20
1679.277061462401
 30
0.0
  0
SEQEND
  5
12DA
  8
4
  6
DASHED1
  0
POLYLINE
  5
87A
  8
4
  6
DASHED1
 66
     1
 10
0.0
 20
0.0
 30
0.0
  0
VERTEX
  5
12DB
  8
4
  6
DASHED1
 10
1536.4626159667971
 20
1527.5816574096659
 30
0.0
  0
VERTEX
  5
12DC
  8
4
  6
DASHED1
 10
1539.6185913085919
 20
1532.032646179201
 30
0.0
  0
VERTEX
  5
12DD
  8
4
  6
DASHED1
 10
1541.2288513183571
 20
1536.2872543334961
 30
0.0
  0
VERTEX
  5
12DE
  8
4
  6
DASHED1
 10
1541.6799011230471
 20
1538.1854476928711
 30
0.0
  0
VERTEX
  5
12DF
  8
4
  6
DASHED1
 10
1541.2288513183571
 20
1536.2872543334961
 30
0.0
  0
SEQEND
  5
12E0
  8
4
  6
DASHED1
  0
POLYLINE
  5
881
  8
4
  6
DASHED1
 66
     1
 10
0.0
 20
0.0
 30
0.0
  0
VERTEX
  5
12E1
  8
4
  6
DASHED1
 10
1518.4924926757831
 20
1579.030326843261
 30
0.0
  0
VERTEX
  5
12E2
  8
4
  6
DASHED1
 10
1518.2495727539081
 20
1577.807334899901
 30
0.0
  0
VERTEX
  5
12E3
  8
4
  6
DASHED1
 10
1517.587036132812
 20
1576.808647155761
 30
0.0
  0
VERTEX
  5
12E4
  8
4
  6
DASHED1
 10
1516.604370117187
 20
1576.1352767944311
 30
0.0
  0
VERTEX
  5
12E5
  8
4
  6
DASHED1
 10
1515.400756835937
 20
1575.888389587401
 30
0.0
  0
VERTEX
  5
12E6
  8
4
  6
DASHED1
 10
1516.604370117187
 20
1576.1352767944311
 30
0.0
  0
SEQEND
  5
12E7
  8
4
  6
DASHED1
  0
POLYLINE
  5
889
  8
4
  6
DASHED1
 66
     1
 10
0.0
 20
0.0
 30
0.0
  0
VERTEX
  5
12E8
  8
4
  6
DASHED1
 10
1512.3091735839821
 20
1602.071098327636
 30
0.0
  0
VERTEX
  5
12E9
  8
4
  6
DASHED1
 10
1512.5520935058571
 20
1603.2939376831059
 30
0.0
  0
VERTEX
  5
12EA
  8
4
  6
DASHED1
 10
1513.2146301269529
 20
1604.2926254272461
 30
0.0
  0
VERTEX
  5
12EB
  8
4
  6
DASHED1
 10
1514.1974487304669
 20
1604.966148376466
 30
0.0
  0
VERTEX
  5
12EC
  8
4
  6
DASHED1
 10
1515.400756835937
 20
1605.2130355834961
 30
0.0
  0
VERTEX
  5
12ED
  8
4
  6
DASHED1
 10
1516.604370117187
 20
1604.966148376466
 30
0.0
  0
VERTEX
  5
12EE
  8
4
  6
DASHED1
 10
1517.587036132812
 20
1604.2926254272461
 30
0.0
  0
VERTEX
  5
12EF
  8
4
  6
DASHED1
 10
1518.2495727539081
 20
1603.2939376831059
 30
0.0
  0
VERTEX
  5
12F0
  8
4
  6
DASHED1
 10
1518.4924926757831
 20
1602.071098327636
 30
0.0
  0
VERTEX
  5
12F1
  8
4
  6
DASHED1
 10
1518.2495727539081
 20
1603.2939376831059
 30
0.0
  0
SEQEND
  5
12F2
  8
4
  6
DASHED1
  0
POLYLINE
  5
895
  8
4
  6
DASHED1
 66
     1
 10
0.0
 20
0.0
 30
0.0
  0
VERTEX
  5
12F3
  8
4
  6
DASHED1
 10
1514.1974487304669
 20
1576.1352767944311
 30
0.0
  0
VERTEX
  5
12F4
  8
4
  6
DASHED1
 10
1513.2146301269529
 20
1576.808647155761
 30
0.0
  0
VERTEX
  5
12F5
  8
4
  6
DASHED1
 10
1512.5520935058571
 20
1577.807334899901
 30
0.0
  0
VERTEX
  5
12F6
  8
4
  6
DASHED1
 10
1512.3091735839821
 20
1579.030326843261
 30
0.0
  0
VERTEX
  5
12F7
  8
4
  6
DASHED1
 10
1512.5520935058571
 20
1577.807334899901
 30
0.0
  0
SEQEND
  5
12F8
  8
4
  6
DASHED1
  0
POLYLINE
  5
89C
  8
4
  6
DASHED1
 66
     1
 10
0.0
 20
0.0
 30
0.0
  0
VERTEX
  5
12F9
  8
4
  6
DASHED1
 10
1518.4924926757831
 20
1615.6859054565409
 30
0.0
  0
VERTEX
  5
12FA
  8
4
  6
DASHED1
 10
1518.2495727539081
 20
1614.4627609252909
 30
0.0
  0
VERTEX
  5
12FB
  8
4
  6
DASHED1
 10
1517.587036132812
 20
1613.4642257690409
 30
0.0
  0
VERTEX
  5
12FC
  8
4
  6
DASHED1
 10
1516.604370117187
 20
1612.790855407716
 30
0.0
  0
VERTEX
  5
12FD
  8
4
  6
DASHED1
 10
1515.400756835937
 20
1612.544120788576
 30
0.0
  0
VERTEX
  5
12FE
  8
4
  6
DASHED1
 10
1516.604370117187
 20
1612.790855407716
 30
0.0
  0
SEQEND
  5
12FF
  8
4
  6
DASHED1
  0
POLYLINE
  5
8A4
  8
4
  6
DASHED1
 66
     1
 10
0.0
 20
0.0
 30
0.0
  0
VERTEX
  5
1300
  8
4
  6
DASHED1
 10
1512.3091735839821
 20
1638.726982116701
 30
0.0
  0
VERTEX
  5
1301
  8
4
  6
DASHED1
 10
1512.5520935058571
 20
1639.9499740600561
 30
0.0
  0
VERTEX
  5
1302
  8
4
  6
DASHED1
 10
1513.2146301269529
 20
1640.9485092163111
 30
0.0
  0
VERTEX
  5
1303
  8
4
  6
DASHED1
 10
1514.1974487304669
 20
1641.621879577636
 30
0.0
  0
VERTEX
  5
1304
  8
4
  6
DASHED1
 10
1515.400756835937
 20
1641.868614196776
 30
0.0
  0
VERTEX
  5
1305
  8
4
  6
DASHED1
 10
1516.604370117187
 20
1641.621879577636
 30
0.0
  0
VERTEX
  5
1306
  8
4
  6
DASHED1
 10
1517.587036132812
 20
1640.9485092163111
 30
0.0
  0
VERTEX
  5
1307
  8
4
  6
DASHED1
 10
1518.2495727539081
 20
1639.9499740600561
 30
0.0
  0
VERTEX
  5
1308
  8
4
  6
DASHED1
 10
1518.4924926757831
 20
1638.726982116701
 30
0.0
  0
VERTEX
  5
1309
  8
4
  6
DASHED1
 10
1518.2495727539081
 20
1639.9499740600561
 30
0.0
  0
SEQEND
  5
130A
  8
4
  6
DASHED1
  0
POLYLINE
  5
8B0
  8
4
  6
DASHED1
 66
     1
 10
0.0
 20
0.0
 30
0.0
  0
VERTEX
  5
130B
  8
4
  6
DASHED1
 10
1514.1974487304669
 20
1612.790855407716
 30
0.0
  0
VERTEX
  5
130C
  8
4
  6
DASHED1
 10
1513.2146301269529
 20
1613.4642257690409
 30
0.0
  0
VERTEX
  5
130D
  8
4
  6
DASHED1
 10
1512.5520935058571
 20
1614.4627609252909
 30
0.0
  0
VERTEX
  5
130E
  8
4
  6
DASHED1
 10
1512.3091735839821
 20
1615.6859054565409
 30
0.0
  0
VERTEX
  5
130F
  8
4
  6
DASHED1
 10
1512.5520935058571
 20
1614.4627609252909
 30
0.0
  0
SEQEND
  5
1310
  8
4
  6
DASHED1
  0
POLYLINE
  5
8D7
  8
4
  6
DASHED1
 66
     1
 10
0.0
 20
0.0
 30
0.0
  0
VERTEX
  5
1311
  8
4
  6
DASHED1
 10
1250.3565063476581
 20
1695.5430831909159
 30
0.0
  0
VERTEX
  5
1312
  8
4
  6
DASHED1
 10
1252.812255859377
 20
1701.205009460451
 30
0.0
  0
VERTEX
  5
1313
  8
4
  6
DASHED1
 10
1254.156860351562
 20
1704.7069015502909
 30
0.0
  0
VERTEX
  5
1314
  8
4
  6
DASHED1
 10
1253.7300720214821
 20
1706.1633529663111
 30
0.0
  0
VERTEX
  5
1315
  8
4
  6
DASHED1
 10
1252.2888793945331
 20
1707.3253097534159
 30
0.0
  0
VERTEX
  5
1316
  8
4
  6
DASHED1
 10
1250.7509460449221
 20
1708.094200134276
 30
0.0
  0
VERTEX
  5
1317
  8
4
  6
DASHED1
 10
1250.034545898437
 20
1708.372367858886
 30
0.0
  0
VERTEX
  5
1318
  8
4
  6
DASHED1
 10
1249.197296142577
 20
1707.2600021362309
 30
0.0
  0
VERTEX
  5
1319
  8
4
  6
DASHED1
 10
1247.2005310058571
 20
1704.576133728026
 30
0.0
  0
VERTEX
  5
131A
  8
4
  6
DASHED1
 10
1244.8174133300779
 20
1701.3031234741211
 30
0.0
  0
VERTEX
  5
131B
  8
4
  6
DASHED1
 10
1242.820800781247
 20
1698.423027038576
 30
0.0
  0
VERTEX
  5
131C
  8
4
  6
DASHED1
 10
1241.4760437011721
 20
1695.8374252319361
 30
0.0
  0
VERTEX
  5
131D
  8
4
  6
DASHED1
 10
1240.5664672851569
 20
1693.055595397951
 30
0.0
  0
VERTEX
  5
131E
  8
4
  6
DASHED1
 10
1240.1396789550779
 20
1690.4699935913111
 30
0.0
  0
VERTEX
  5
131F
  8
4
  6
DASHED1
 10
1240.2443542480471
 20
1688.4735336303711
 30
0.0
  0
VERTEX
  5
1320
  8
4
  6
DASHED1
 10
1240.1396789550779
 20
1690.4699935913111
 30
0.0
  0
SEQEND
  5
1321
  8
4
  6
DASHED1
  0
POLYLINE
  5
8E9
  8
4
  6
DASHED1
 66
     1
 10
0.0
 20
0.0
 30
0.0
  0
VERTEX
  5
1322
  8
4
  6
DASHED1
 10
1246.9429626464821
 20
1687.950004577636
 30
0.0
  0
VERTEX
  5
1323
  8
4
  6
DASHED1
 10
1247.9976501464821
 20
1690.273765563966
 30
0.0
  0
VERTEX
  5
1324
  8
4
  6
DASHED1
 10
1246.9429626464821
 20
1687.950004577636
 30
0.0
  0
SEQEND
  5
1325
  8
4
  6
DASHED1
  0
POLYLINE
  5
8EE
  8
4
  6
DASHED1
 66
     1
 10
0.0
 20
0.0
 30
0.0
  0
VERTEX
  5
1326
  8
4
  6
DASHED1
 10
1250.3565063476581
 20
1524.308647155761
 30
0.0
  0
VERTEX
  5
1327
  8
4
  6
DASHED1
 10
1252.812255859377
 20
1518.6468734741211
 30
0.0
  0
VERTEX
  5
1328
  8
4
  6
DASHED1
 10
1254.156860351562
 20
1515.1446762084961
 30
0.0
  0
VERTEX
  5
1329
  8
4
  6
DASHED1
 10
1253.7300720214821
 20
1513.6882247924809
 30
0.0
  0
VERTEX
  5
132A
  8
4
  6
DASHED1
 10
1252.2888793945331
 20
1512.526420593261
 30
0.0
  0
VERTEX
  5
132B
  8
4
  6
DASHED1
 10
1250.7509460449221
 20
1511.757377624511
 30
0.0
  0
VERTEX
  5
132C
  8
4
  6
DASHED1
 10
1250.034545898437
 20
1511.479209899901
 30
0.0
  0
VERTEX
  5
132D
  8
4
  6
DASHED1
 10
1249.197296142577
 20
1512.591880798341
 30
0.0
  0
VERTEX
  5
132E
  8
4
  6
DASHED1
 10
1247.2005310058571
 20
1515.275596618651
 30
0.0
  0
VERTEX
  5
132F
  8
4
  6
DASHED1
 10
1244.8174133300779
 20
1518.5484542846659
 30
0.0
  0
VERTEX
  5
1330
  8
4
  6
DASHED1
 10
1242.820800781247
 20
1521.428550720216
 30
0.0
  0
VERTEX
  5
1331
  8
4
  6
DASHED1
 10
1241.4760437011721
 20
1524.0141525268559
 30
0.0
  0
VERTEX
  5
1332
  8
4
  6
DASHED1
 10
1240.5664672851569
 20
1526.795982360841
 30
0.0
  0
VERTEX
  5
1333
  8
4
  6
DASHED1
 10
1240.1396789550779
 20
1529.3815841674809
 30
0.0
  0
VERTEX
  5
1334
  8
4
  6
DASHED1
 10
1240.2443542480471
 20
1531.3780441284159
 30
0.0
  0
VERTEX
  5
1335
  8
4
  6
DASHED1
 10
1240.1396789550779
 20
1529.3815841674809
 30
0.0
  0
SEQEND
  5
1336
  8
4
  6
DASHED1
  0
POLYLINE
  5
900
  8
4
  6
DASHED1
 66
     1
 10
0.0
 20
0.0
 30
0.0
  0
VERTEX
  5
1337
  8
4
  6
DASHED1
 10
1246.9429626464821
 20
1531.9017257690409
 30
0.0
  0
VERTEX
  5
1338
  8
4
  6
DASHED1
 10
1247.9976501464821
 20
1529.5781173706059
 30
0.0
  0
VERTEX
  5
1339
  8
4
  6
DASHED1
 10
1246.9429626464821
 20
1531.9017257690409
 30
0.0
  0
SEQEND
  5
133A
  8
4
  6
DASHED1
  0
POLYLINE
  5
905
  8
4
  6
DASHED1
 66
     1
 10
0.0
 20
0.0
 30
0.0
  0
VERTEX
  5
133B
  8
4
  6
DASHED1
 10
1103.181289672852
 20
1540.279869079591
 30
0.0
  0
VERTEX
  5
133C
  8
4
  6
DASHED1
 10
1101.6113128662121
 20
1551.898521423341
 30
0.0
  0
VERTEX
  5
133D
  8
4
  6
DASHED1
 10
1100.669311523437
 20
1570.3900375366211
 30
0.0
  0
VERTEX
  5
133E
  8
4
  6
DASHED1
 10
1100.2104034423819
 20
1590.059989929201
 30
0.0
  0
VERTEX
  5
133F
  8
4
  6
DASHED1
 10
1100.0897064208971
 20
1605.2130355834961
 30
0.0
  0
VERTEX
  5
1340
  8
4
  6
DASHED1
 10
1100.5969848632819
 20
1621.7651596069361
 30
0.0
  0
VERTEX
  5
1341
  8
4
  6
DASHED1
 10
1101.8288269042971
 20
1644.5524826049809
 30
0.0
  0
VERTEX
  5
1342
  8
4
  6
DASHED1
 10
1103.3504333496071
 20
1666.259483337401
 30
0.0
  0
VERTEX
  5
1343
  8
4
  6
DASHED1
 10
1104.727310180662
 20
1679.5715560913111
 30
0.0
  0
VERTEX
  5
1344
  8
4
  6
DASHED1
 10
1107.561172485352
 20
1685.7000961303711
 30
0.0
  0
VERTEX
  5
1345
  8
4
  6
DASHED1
 10
1112.713912963867
 20
1690.5029525756861
 30
0.0
  0
VERTEX
  5
1346
  8
4
  6
DASHED1
 10
1118.639434814452
 20
1693.636802673341
 30
0.0
  0
VERTEX
  5
1347
  8
4
  6
DASHED1
 10
1123.7921752929669
 20
1694.7575607299809
 30
0.0
  0
VERTEX
  5
1348
  8
4
  6
DASHED1
 10
1129.033493041992
 20
1694.913047790526
 30
0.0
  0
VERTEX
  5
1349
  8
4
  6
DASHED1
 10
1135.1927032470719
 20
1695.215782165526
 30
0.0
  0
VERTEX
  5
134A
  8
4
  6
DASHED1
 10
1140.675415039062
 20
1695.420249938966
 30
0.0
  0
VERTEX
  5
134B
  8
4
  6
DASHED1
 10
1143.8879241943371
 20
1695.2812423706059
 30
0.0
  0
VERTEX
  5
134C
  8
4
  6
DASHED1
 10
1145.481933593747
 20
1694.651206970216
 30
0.0
  0
VERTEX
  5
134D
  8
4
  6
DASHED1
 10
1146.979660034177
 20
1693.7756576538061
 30
0.0
  0
VERTEX
  5
134E
  8
4
  6
DASHED1
 10
1148.090728759767
 20
1692.998374938966
 30
0.0
  0
VERTEX
  5
134F
  8
4
  6
DASHED1
 10
1148.5253753662121
 20
1692.6628341674809
 30
0.0
  0
VERTEX
  5
1350
  8
4
  6
DASHED1
 10
1148.090728759767
 20
1692.998374938966
 30
0.0
  0
SEQEND
  5
1351
  8
4
  6
DASHED1
  0
POLYLINE
  5
91D
  8
4
  6
DASHED1
 66
     1
 10
0.0
 20
0.0
 30
0.0
  0
VERTEX
  5
1352
  8
4
  6
DASHED1
 10
1126.9483032226569
 20
1524.635948181151
 30
0.0
  0
VERTEX
  5
1353
  8
4
  6
DASHED1
 10
1120.0968780517569
 20
1525.5931320190409
 30
0.0
  0
VERTEX
  5
1354
  8
4
  6
DASHED1
 10
1115.032714843747
 20
1527.1887435913111
 30
0.0
  0
VERTEX
  5
1355
  8
4
  6
DASHED1
 10
1111.586822509767
 20
1529.1606369018559
 30
0.0
  0
VERTEX
  5
1356
  8
4
  6
DASHED1
 10
1108.334106445312
 20
1531.574424743651
 30
0.0
  0
VERTEX
  5
1357
  8
4
  6
DASHED1
 10
1105.467895507812
 20
1535.068077087401
 30
0.0
  0
VERTEX
  5
1358
  8
4
  6
DASHED1
 10
1108.334106445312
 20
1531.574424743651
 30
0.0
  0
SEQEND
  5
1359
  8
4
  6
DASHED1
  0
POLYLINE
  5
926
  8
4
  6
DASHED1
 66
     1
 10
0.0
 20
0.0
 30
0.0
  0
VERTEX
  5
135A
  8
4
  6
DASHED1
 10
1119.026016235352
 20
1535.3051986694311
 30
0.0
  0
VERTEX
  5
135B
  8
4
  6
DASHED1
 10
1124.742111206052
 20
1532.441581726076
 30
0.0
  0
VERTEX
  5
135C
  8
4
  6
DASHED1
 10
1128.429702758787
 20
1530.8543624877909
 30
0.0
  0
VERTEX
  5
135D
  8
4
  6
DASHED1
 10
1131.690353393552
 20
1529.921592712401
 30
0.0
  0
VERTEX
  5
135E
  8
4
  6
DASHED1
 10
1136.3519897460919
 20
1528.890556335451
 30
0.0
  0
VERTEX
  5
135F
  8
4
  6
DASHED1
 10
1140.5306091308571
 20
1528.056205749511
 30
0.0
  0
VERTEX
  5
1360
  8
4
  6
DASHED1
 10
1142.342208862302
 20
1527.7124252319361
 30
0.0
  0
VERTEX
  5
1361
  8
4
  6
DASHED1
 10
1142.0522155761721
 20
1527.1397628784159
 30
0.0
  0
VERTEX
  5
1362
  8
4
  6
DASHED1
 10
1141.1826934814469
 20
1525.879692077636
 30
0.0
  0
VERTEX
  5
1363
  8
4
  6
DASHED1
 10
1139.733413696287
 20
1524.6196212768559
 30
0.0
  0
VERTEX
  5
1364
  8
4
  6
DASHED1
 10
1137.704605102537
 20
1524.0466537475611
 30
0.0
  0
VERTEX
  5
1365
  8
4
  6
DASHED1
 10
1133.5099639892569
 20
1524.169486999511
 30
0.0
  0
VERTEX
  5
1366
  8
4
  6
DASHED1
 10
1137.704605102537
 20
1524.0466537475611
 30
0.0
  0
SEQEND
  5
1367
  8
4
  6
DASHED1
  0
POLYLINE
  5
935
  8
4
  6
DASHED1
 66
     1
 10
0.0
 20
0.0
 30
0.0
  0
VERTEX
  5
1368
  8
4
  6
DASHED1
 10
1108.374313354492
 20
1645.9678878784159
 30
0.0
  0
VERTEX
  5
1369
  8
4
  6
DASHED1
 10
1107.898315429687
 20
1631.7546310424809
 30
0.0
  0
VERTEX
  5
136A
  8
4
  6
DASHED1
 10
1107.367919921877
 20
1615.227836608886
 30
0.0
  0
VERTEX
  5
136B
  8
4
  6
DASHED1
 10
1106.8616333007819
 20
1598.332847595216
 30
0.0
  0
VERTEX
  5
136C
  8
4
  6
DASHED1
 10
1106.4581146240221
 20
1583.0150070190409
 30
0.0
  0
VERTEX
  5
136D
  8
4
  6
DASHED1
 10
1106.235641479492
 20
1571.2193527221659
 30
0.0
  0
VERTEX
  5
136E
  8
4
  6
DASHED1
 10
1106.2730255126969
 20
1564.8918380737309
 30
0.0
  0
VERTEX
  5
136F
  8
4
  6
DASHED1
 10
1106.917022705077
 20
1558.877891540526
 30
0.0
  0
VERTEX
  5
1370
  8
4
  6
DASHED1
 10
1107.947753906247
 20
1552.9132308959961
 30
0.0
  0
VERTEX
  5
1371
  8
4
  6
DASHED1
 10
1109.171432495117
 20
1547.4394454956059
 30
0.0
  0
VERTEX
  5
1372
  8
4
  6
DASHED1
 10
1110.395187377927
 20
1542.8979721069361
 30
0.0
  0
VERTEX
  5
1373
  8
4
  6
DASHED1
 10
1113.502944946287
 20
1538.9544906616211
 30
0.0
  0
VERTEX
  5
1374
  8
4
  6
DASHED1
 10
1110.395187377927
 20
1542.8979721069361
 30
0.0
  0
SEQEND
  5
1375
  8
4
  6
DASHED1
  0
POLYLINE
  5
944
  8
4
  6
DASHED1
 66
     1
 10
0.0
 20
0.0
 30
0.0
  0
VERTEX
  5
1376
  8
4
  6
DASHED1
 10
1124.7583618164069
 20
1688.539146423341
 30
0.0
  0
VERTEX
  5
1377
  8
4
  6
DASHED1
 10
1119.259399414062
 20
1685.716117858886
 30
0.0
  0
VERTEX
  5
1378
  8
4
  6
DASHED1
 10
1114.002212524412
 20
1681.6661300659159
 30
0.0
  0
VERTEX
  5
1379
  8
4
  6
DASHED1
 10
1110.3710784912121
 20
1675.578788757326
 30
0.0
  0
VERTEX
  5
137A
  8
4
  6
DASHED1
 10
1108.9137878417971
 20
1668.3130111694311
 30
0.0
  0
VERTEX
  5
137B
  8
4
  6
DASHED1
 10
1108.712524414062
 20
1662.225669860841
 30
0.0
  0
VERTEX
  5
137C
  8
4
  6
DASHED1
 10
1108.849395751952
 20
1659.6728744506861
 30
0.0
  0
VERTEX
  5
137D
  8
4
  6
DASHED1
 10
1108.717407226562
 20
1655.922416687011
 30
0.0
  0
VERTEX
  5
137E
  8
4
  6
DASHED1
 10
1108.849395751952
 20
1659.6728744506861
 30
0.0
  0
SEQEND
  5
137F
  8
4
  6
DASHED1
  0
POLYLINE
  5
94F
  8
4
  6
DASHED1
 66
     1
 10
0.0
 20
0.0
 30
0.0
  0
VERTEX
  5
1380
  8
4
  6
DASHED1
 10
1147.3016967773419
 20
1692.491172790526
 30
0.0
  0
VERTEX
  5
1381
  8
4
  6
DASHED1
 10
1144.1455688476569
 20
1692.0738449096659
 30
0.0
  0
VERTEX
  5
1382
  8
4
  6
DASHED1
 10
1139.8301544189469
 20
1691.558403015136
 30
0.0
  0
VERTEX
  5
1383
  8
4
  6
DASHED1
 10
1135.128311157227
 20
1691.0917892456059
 30
0.0
  0
VERTEX
  5
1384
  8
4
  6
DASHED1
 10
1130.1605834960919
 20
1690.2820053100561
 30
0.0
  0
VERTEX
  5
1385
  8
4
  6
DASHED1
 10
1135.128311157227
 20
1691.0917892456059
 30
0.0
  0
SEQEND
  5
1386
  8
4
  6
DASHED1
  0
POLYLINE
  5
972
  8
4
  6
DASHED1
 66
     1
 10
0.0
 20
0.0
 30
0.0
  0
VERTEX
  5
1387
  8
4
  6
DASHED1
 10
1364.9408569335919
 20
1555.9892501831059
 30
0.0
  0
VERTEX
  5
1388
  8
4
  6
DASHED1
 10
1364.576171875002
 20
1554.1551437377909
 30
0.0
  0
VERTEX
  5
1389
  8
4
  6
DASHED1
 10
1363.5823669433571
 20
1552.6568832397461
 30
0.0
  0
VERTEX
  5
138A
  8
4
  6
DASHED1
 10
1362.1083679199221
 20
1551.646903991701
 30
0.0
  0
VERTEX
  5
138B
  8
4
  6
DASHED1
 10
1360.3034057617169
 20
1551.2768783569361
 30
0.0
  0
VERTEX
  5
138C
  8
4
  6
DASHED1
 10
1362.1083679199221
 20
1551.646903991701
 30
0.0
  0
SEQEND
  5
138D
  8
4
  6
DASHED1
  0
POLYLINE
  5
97A
  8
4
  6
DASHED1
 66
     1
 10
0.0
 20
0.0
 30
0.0
  0
VERTEX
  5
138E
  8
4
  6
DASHED1
 10
1355.665802001952
 20
1663.8623275756861
 30
0.0
  0
VERTEX
  5
138F
  8
4
  6
DASHED1
 10
1356.030181884767
 20
1665.696586608886
 30
0.0
  0
VERTEX
  5
1390
  8
4
  6
DASHED1
 10
1357.0239868164081
 20
1667.1946945190409
 30
0.0
  0
VERTEX
  5
1391
  8
4
  6
DASHED1
 10
1358.4981384277321
 20
1668.204673767091
 30
0.0
  0
VERTEX
  5
1392
  8
4
  6
DASHED1
 10
1360.3034057617169
 20
1668.575004577636
 30
0.0
  0
VERTEX
  5
1393
  8
4
  6
DASHED1
 10
1362.1083679199221
 20
1668.204673767091
 30
0.0
  0
VERTEX
  5
1394
  8
4
  6
DASHED1
 10
1363.5823669433571
 20
1667.1946945190409
 30
0.0
  0
VERTEX
  5
1395
  8
4
  6
DASHED1
 10
1364.576171875002
 20
1665.696586608886
 30
0.0
  0
VERTEX
  5
1396
  8
4
  6
DASHED1
 10
1364.9408569335919
 20
1663.8623275756861
 30
0.0
  0
VERTEX
  5
1397
  8
4
  6
DASHED1
 10
1364.576171875002
 20
1665.696586608886
 30
0.0
  0
SEQEND
  5
1398
  8
4
  6
DASHED1
  0
POLYLINE
  5
986
  8
4
  6
DASHED1
 66
     1
 10
0.0
 20
0.0
 30
0.0
  0
VERTEX
  5
1399
  8
4
  6
DASHED1
 10
1358.4981384277321
 20
1551.646903991701
 30
0.0
  0
VERTEX
  5
139A
  8
4
  6
DASHED1
 10
1357.0239868164081
 20
1552.6568832397461
 30
0.0
  0
VERTEX
  5
139B
  8
4
  6
DASHED1
 10
1356.030181884767
 20
1554.1551437377909
 30
0.0
  0
VERTEX
  5
139C
  8
4
  6
DASHED1
 10
1355.665802001952
 20
1555.9892501831059
 30
0.0
  0
VERTEX
  5
139D
  8
4
  6
DASHED1
 10
1356.030181884767
 20
1554.1551437377909
 30
0.0
  0
SEQEND
  5
139E
  8
4
  6
DASHED1
  0
POLYLINE
  5
98D
  8
4
  6
DASHED1
 66
     1
 10
0.0
 20
0.0
 30
0.0
  0
VERTEX
  5
139F
  8
4
  6
DASHED1
 10
1414.9223937988279
 20
1555.9892501831059
 30
0.0
  0
VERTEX
  5
13A0
  8
4
  6
DASHED1
 10
1414.557861328127
 20
1554.1551437377909
 30
0.0
  0
VERTEX
  5
13A1
  8
4
  6
DASHED1
 10
1413.5640563964821
 20
1552.6568832397461
 30
0.0
  0
VERTEX
  5
13A2
  8
4
  6
DASHED1
 10
1412.0899047851581
 20
1551.646903991701
 30
0.0
  0
VERTEX
  5
13A3
  8
4
  6
DASHED1
 10
1410.284790039062
 20
1551.2768783569361
 30
0.0
  0
VERTEX
  5
13A4
  8
4
  6
DASHED1
 10
1412.0899047851581
 20
1551.646903991701
 30
0.0
  0
SEQEND
  5
13A5
  8
4
  6
DASHED1
  0
POLYLINE
  5
995
  8
4
  6
DASHED1
 66
     1
 10
0.0
 20
0.0
 30
0.0
  0
VERTEX
  5
13A6
  8
4
  6
DASHED1
 10
1405.647338867187
 20
1663.8623275756861
 30
0.0
  0
VERTEX
  5
13A7
  8
4
  6
DASHED1
 10
1406.0115661621071
 20
1665.696586608886
 30
0.0
  0
VERTEX
  5
13A8
  8
4
  6
DASHED1
 10
1407.0056762695319
 20
1667.1946945190409
 30
0.0
  0
VERTEX
  5
13A9
  8
4
  6
DASHED1
 10
1408.479522705077
 20
1668.204673767091
 30
0.0
  0
VERTEX
  5
13AA
  8
4
  6
DASHED1
 10
1410.284790039062
 20
1668.575004577636
 30
0.0
  0
VERTEX
  5
13AB
  8
4
  6
DASHED1
 10
1412.0899047851581
 20
1668.204673767091
 30
0.0
  0
VERTEX
  5
13AC
  8
4
  6
DASHED1
 10
1413.5640563964821
 20
1667.1946945190409
 30
0.0
  0
VERTEX
  5
13AD
  8
4
  6
DASHED1
 10
1414.557861328127
 20
1665.696586608886
 30
0.0
  0
VERTEX
  5
13AE
  8
4
  6
DASHED1
 10
1414.9223937988279
 20
1663.8623275756861
 30
0.0
  0
VERTEX
  5
13AF
  8
4
  6
DASHED1
 10
1414.557861328127
 20
1665.696586608886
 30
0.0
  0
SEQEND
  5
13B0
  8
4
  6
DASHED1
  0
POLYLINE
  5
9A1
  8
4
  6
DASHED1
 66
     1
 10
0.0
 20
0.0
 30
0.0
  0
VERTEX
  5
13B1
  8
4
  6
DASHED1
 10
1408.479522705077
 20
1551.646903991701
 30
0.0
  0
VERTEX
  5
13B2
  8
4
  6
DASHED1
 10
1407.0056762695319
 20
1552.6568832397461
 30
0.0
  0
VERTEX
  5
13B3
  8
4
  6
DASHED1
 10
1406.0115661621071
 20
1554.1551437377909
 30
0.0
  0
VERTEX
  5
13B4
  8
4
  6
DASHED1
 10
1405.647338867187
 20
1555.9892501831059
 30
0.0
  0
VERTEX
  5
13B5
  8
4
  6
DASHED1
 10
1406.0115661621071
 20
1554.1551437377909
 30
0.0
  0
SEQEND
  5
13B6
  8
4
  6
DASHED1
  0
POLYLINE
  5
9A8
  8
4
  6
DASHED1
 66
     1
 10
0.0
 20
0.0
 30
0.0
  0
VERTEX
  5
13B7
  8
4
  6
DASHED1
 10
1215.5111541748031
 20
1644.487022399901
 30
0.0
  0
VERTEX
  5
13B8
  8
4
  6
DASHED1
 10
1215.2276458740221
 20
1643.0601730346659
 30
0.0
  0
VERTEX
  5
13B9
  8
4
  6
DASHED1
 10
1214.4545593261721
 20
1641.8950119018559
 30
0.0
  0
VERTEX
  5
13BA
  8
4
  6
DASHED1
 10
1213.3080902099621
 20
1641.109336853026
 30
0.0
  0
VERTEX
  5
13BB
  8
4
  6
DASHED1
 10
1211.9041290283219
 20
1640.821250915526
 30
0.0
  0
VERTEX
  5
13BC
  8
4
  6
DASHED1
 10
1213.3080902099621
 20
1641.109336853026
 30
0.0
  0
SEQEND
  5
13BD
  8
4
  6
DASHED1
  0
POLYLINE
  5
9B0
  8
4
  6
DASHED1
 66
     1
 10
0.0
 20
0.0
 30
0.0
  0
VERTEX
  5
13BE
  8
4
  6
DASHED1
 10
1208.297256469727
 20
1657.0544662475611
 30
0.0
  0
VERTEX
  5
13BF
  8
4
  6
DASHED1
 10
1208.580688476562
 20
1658.481163024901
 30
0.0
  0
VERTEX
  5
13C0
  8
4
  6
DASHED1
 10
1209.3536987304669
 20
1659.6466293334961
 30
0.0
  0
VERTEX
  5
13C1
  8
4
  6
DASHED1
 10
1210.5000915527321
 20
1660.4321517944311
 30
0.0
  0
VERTEX
  5
13C2
  8
4
  6
DASHED1
 10
1211.9041290283219
 20
1660.7200851440409
 30
0.0
  0
VERTEX
  5
13C3
  8
4
  6
DASHED1
 10
1213.3080902099621
 20
1660.4321517944311
 30
0.0
  0
VERTEX
  5
13C4
  8
4
  6
DASHED1
 10
1214.4545593261721
 20
1659.6466293334961
 30
0.0
  0
VERTEX
  5
13C5
  8
4
  6
DASHED1
 10
1215.2276458740221
 20
1658.481163024901
 30
0.0
  0
VERTEX
  5
13C6
  8
4
  6
DASHED1
 10
1215.5111541748031
 20
1657.0544662475611
 30
0.0
  0
VERTEX
  5
13C7
  8
4
  6
DASHED1
 10
1215.2276458740221
 20
1658.481163024901
 30
0.0
  0
SEQEND
  5
13C8
  8
4
  6
DASHED1
  0
POLYLINE
  5
9BC
  8
4
  6
DASHED1
 66
     1
 10
0.0
 20
0.0
 30
0.0
  0
VERTEX
  5
13C9
  8
4
  6
DASHED1
 10
1210.5000915527321
 20
1641.109336853026
 30
0.0
  0
VERTEX
  5
13CA
  8
4
  6
DASHED1
 10
1209.3536987304669
 20
1641.8950119018559
 30
0.0
  0
VERTEX
  5
13CB
  8
4
  6
DASHED1
 10
1208.580688476562
 20
1643.0601730346659
 30
0.0
  0
VERTEX
  5
13CC
  8
4
  6
DASHED1
 10
1208.297256469727
 20
1644.487022399901
 30
0.0
  0
VERTEX
  5
13CD
  8
4
  6
DASHED1
 10
1208.580688476562
 20
1643.0601730346659
 30
0.0
  0
SEQEND
  5
13CE
  8
4
  6
DASHED1
  0
POLYLINE
  5
9C3
  8
4
  6
DASHED1
 66
     1
 10
0.0
 20
0.0
 30
0.0
  0
VERTEX
  5
13CF
  8
4
  6
DASHED1
 10
1215.5111541748031
 20
1563.320640563966
 30
0.0
  0
VERTEX
  5
13D0
  8
4
  6
DASHED1
 10
1215.2276458740221
 20
1561.8939437866211
 30
0.0
  0
VERTEX
  5
13D1
  8
4
  6
DASHED1
 10
1214.4545593261721
 20
1560.7287826538061
 30
0.0
  0
VERTEX
  5
13D2
  8
4
  6
DASHED1
 10
1213.3080902099621
 20
1559.9431076049809
 30
0.0
  0
VERTEX
  5
13D3
  8
4
  6
DASHED1
 10
1211.9041290283219
 20
1559.6551742553711
 30
0.0
  0
VERTEX
  5
13D4
  8
4
  6
DASHED1
 10
1213.3080902099621
 20
1559.9431076049809
 30
0.0
  0
SEQEND
  5
13D5
  8
4
  6
DASHED1
  0
POLYLINE
  5
9CB
  8
4
  6
DASHED1
 66
     1
 10
0.0
 20
0.0
 30
0.0
  0
VERTEX
  5
13D6
  8
4
  6
DASHED1
 10
1208.297256469727
 20
1575.888389587401
 30
0.0
  0
VERTEX
  5
13D7
  8
4
  6
DASHED1
 10
1208.580688476562
 20
1577.315238952636
 30
0.0
  0
VERTEX
  5
13D8
  8
4
  6
DASHED1
 10
1209.3536987304669
 20
1578.480400085451
 30
0.0
  0
VERTEX
  5
13D9
  8
4
  6
DASHED1
 10
1210.5000915527321
 20
1579.2657699584961
 30
0.0
  0
VERTEX
  5
13DA
  8
4
  6
DASHED1
 10
1211.9041290283219
 20
1579.5538558959961
 30
0.0
  0
VERTEX
  5
13DB
  8
4
  6
DASHED1
 10
1213.3080902099621
 20
1579.2657699584961
 30
0.0
  0
VERTEX
  5
13DC
  8
4
  6
DASHED1
 10
1214.4545593261721
 20
1578.480400085451
 30
0.0
  0
VERTEX
  5
13DD
  8
4
  6
DASHED1
 10
1215.2276458740221
 20
1577.315238952636
 30
0.0
  0
VERTEX
  5
13DE
  8
4
  6
DASHED1
 10
1215.5111541748031
 20
1575.888389587401
 30
0.0
  0
VERTEX
  5
13DF
  8
4
  6
DASHED1
 10
1215.2276458740221
 20
1577.315238952636
 30
0.0
  0
SEQEND
  5
13E0
  8
4
  6
DASHED1
  0
POLYLINE
  5
9D7
  8
4
  6
DASHED1
 66
     1
 10
0.0
 20
0.0
 30
0.0
  0
VERTEX
  5
13E1
  8
4
  6
DASHED1
 10
1210.5000915527321
 20
1559.9431076049809
 30
0.0
  0
VERTEX
  5
13E2
  8
4
  6
DASHED1
 10
1209.3536987304669
 20
1560.7287826538061
 30
0.0
  0
VERTEX
  5
13E3
  8
4
  6
DASHED1
 10
1208.580688476562
 20
1561.8939437866211
 30
0.0
  0
VERTEX
  5
13E4
  8
4
  6
DASHED1
 10
1208.297256469727
 20
1563.320640563966
 30
0.0
  0
VERTEX
  5
13E5
  8
4
  6
DASHED1
 10
1208.580688476562
 20
1561.8939437866211
 30
0.0
  0
SEQEND
  5
13E6
  8
4
  6
DASHED1
  0
POLYLINE
  5
9DE
  8
4
  6
DASHED1
 66
     1
 10
0.0
 20
0.0
 30
0.0
  0
VERTEX
  5
13E7
  8
4
  6
DASHED1
 10
1093.3910980224621
 20
1618.532890319826
 30
0.0
  0
VERTEX
  5
13E8
  8
4
  6
DASHED1
 10
1093.3910980224621
 20
1642.711509704591
 30
0.0
  0
VERTEX
  5
13E9
  8
4
  6
DASHED1
 10
1099.5744171142569
 20
1642.711509704591
 30
0.0
  0
VERTEX
  5
13EA
  8
4
  6
DASHED1
 10
1099.5744171142569
 20
1618.532890319826
 30
0.0
  0
VERTEX
  5
13EB
  8
4
  6
DASHED1
 10
1099.5744171142569
 20
1642.711509704591
 30
0.0
  0
SEQEND
  5
13EC
  8
4
  6
DASHED1
  0
POLYLINE
  5
9E5
  8
4
  6
DASHED1
 66
     1
 10
0.0
 20
0.0
 30
0.0
  0
VERTEX
  5
13ED
  8
4
  6
DASHED1
 10
1099.5744171142569
 20
1618.532890319826
 30
0.0
  0
VERTEX
  5
13EE
  8
4
  6
DASHED1
 10
1103.467086791992
 20
1619.821342468261
 30
0.0
  0
VERTEX
  5
13EF
  8
4
  6
DASHED1
 10
1105.983184814452
 20
1623.027671813966
 30
0.0
  0
VERTEX
  5
13F0
  8
4
  6
DASHED1
 10
1107.291397094727
 20
1627.163871765136
 30
0.0
  0
VERTEX
  5
13F1
  8
4
  6
DASHED1
 10
1107.561172485352
 20
1631.2420883178711
 30
0.0
  0
VERTEX
  5
13F2
  8
4
  6
DASHED1
 10
1106.8929138183571
 20
1635.0828781127909
 30
0.0
  0
VERTEX
  5
13F3
  8
4
  6
DASHED1
 10
1105.306762695312
 20
1638.720268249511
 30
0.0
  0
VERTEX
  5
13F4
  8
4
  6
DASHED1
 10
1102.851242065427
 20
1641.4860763549809
 30
0.0
  0
VERTEX
  5
13F5
  8
4
  6
DASHED1
 10
1099.5744171142569
 20
1642.711509704591
 30
0.0
  0
VERTEX
  5
13F6
  8
4
  6
DASHED1
 10
1102.851242065427
 20
1641.4860763549809
 30
0.0
  0
SEQEND
  5
13F7
  8
4
  6
DASHED1
  0
POLYLINE
  5
9F8
  8
4
  6
DASHED1
 66
     1
 10
0.0
 20
0.0
 30
0.0
  0
VERTEX
  5
13F8
  8
4
  6
DASHED1
 10
1099.5744171142569
 20
1574.5459213256861
 30
0.0
  0
VERTEX
  5
13F9
  8
4
  6
DASHED1
 10
1103.467086791992
 20
1575.8343734741211
 30
0.0
  0
VERTEX
  5
13FA
  8
4
  6
DASHED1
 10
1105.983184814452
 20
1579.040702819826
 30
0.0
  0
VERTEX
  5
13FB
  8
4
  6
DASHED1
 10
1107.291397094727
 20
1583.1769027709961
 30
0.0
  0
VERTEX
  5
13FC
  8
4
  6
DASHED1
 10
1107.561172485352
 20
1587.2551193237309
 30
0.0
  0
VERTEX
  5
13FD
  8
4
  6
DASHED1
 10
1106.8929138183571
 20
1591.095756530761
 30
0.0
  0
VERTEX
  5
13FE
  8
4
  6
DASHED1
 10
1105.306762695312
 20
1594.733451843261
 30
0.0
  0
VERTEX
  5
13FF
  8
4
  6
DASHED1
 10
1102.851242065427
 20
1597.498954772951
 30
0.0
  0
VERTEX
  5
1400
  8
4
  6
DASHED1
 10
1099.5744171142569
 20
1598.7243881225611
 30
0.0
  0
VERTEX
  5
1401
  8
4
  6
DASHED1
 10
1102.851242065427
 20
1597.498954772951
 30
0.0
  0
SEQEND
  5
1402
  8
4
  6
DASHED1
  0
POLYLINE
  5
A04
  8
4
  6
DASHED1
 66
     1
 10
0.0
 20
0.0
 30
0.0
  0
VERTEX
  5
1403
  8
4
  6
DASHED1
 10
1278.8899841308571
 20
1664.909385681151
 30
0.0
  0
VERTEX
  5
1404
  8
4
  6
DASHED1
 10
1291.354125976562
 20
1664.608940124511
 30
0.0
  0
VERTEX
  5
1405
  8
4
  6
DASHED1
 10
1318.1232299804669
 20
1664.4677963256861
 30
0.0
  0
VERTEX
  5
1406
  8
4
  6
DASHED1
 10
1354.275878906247
 20
1664.449180603026
 30
0.0
  0
VERTEX
  5
1407
  8
4
  6
DASHED1
 10
1394.8909606933571
 20
1664.516777038576
 30
0.0
  0
VERTEX
  5
1408
  8
4
  6
DASHED1
 10
1435.047363281247
 20
1664.633354187011
 30
0.0
  0
VERTEX
  5
1409
  8
4
  6
DASHED1
 10
1469.8232116699221
 20
1664.762138366701
 30
0.0
  0
VERTEX
  5
140A
  8
4
  6
DASHED1
 10
1494.2976989746071
 20
1664.866661071776
 30
0.0
  0
VERTEX
  5
140B
  8
4
  6
DASHED1
 10
1503.5494079589821
 20
1664.909385681151
 30
0.0
  0
SEQEND
  5
140C
  8
4
  6
DASHED1
  0
POLYLINE
  5
A0F
  8
4
  6
DASHED1
 66
     1
 10
0.0
 20
0.0
 30
0.0
  0
VERTEX
  5
140D
  8
4
  6
DASHED1
 10
1531.374267578127
 20
1694.2340316772461
 30
0.0
  0
VERTEX
  5
140E
  8
4
  6
DASHED1
 10
1183.0489196777321
 20
1694.2340316772461
 30
0.0
  0
VERTEX
  5
140F
  8
4
  6
DASHED1
 10
1167.0512237548819
 20
1693.800224304201
 30
0.0
  0
VERTEX
  5
1410
  8
4
  6
DASHED1
 10
1150.521987915037
 20
1692.728446960451
 30
0.0
  0
VERTEX
  5
1411
  8
4
  6
DASHED1
 10
1136.6015472412121
 20
1691.362022399901
 30
0.0
  0
VERTEX
  5
1412
  8
4
  6
DASHED1
 10
1128.429702758787
 20
1690.0444259643559
 30
0.0
  0
VERTEX
  5
1413
  8
4
  6
DASHED1
 10
1123.3413543701181
 20
1688.572105407716
 30
0.0
  0
VERTEX
  5
1414
  8
4
  6
DASHED1
 10
1117.4800720214821
 20
1685.331748962401
 30
0.0
  0
VERTEX
  5
1415
  8
4
  6
DASHED1
 10
1112.198623657227
 20
1678.5571517944311
 30
0.0
  0
VERTEX
  5
1416
  8
4
  6
DASHED1
 10
1108.849395751952
 20
1666.480430603026
 30
0.0
  0
VERTEX
  5
1417
  8
4
  6
DASHED1
 10
1107.9366149902321
 20
1656.385826110841
 30
0.0
  0
VERTEX
  5
1418
  8
4
  6
DASHED1
 10
1107.150558471677
 20
1642.3759689331059
 30
0.0
  0
VERTEX
  5
1419
  8
4
  6
DASHED1
 10
1106.521514892577
 20
1625.887168884276
 30
0.0
  0
VERTEX
  5
141A
  8
4
  6
DASHED1
 10
1106.079849243162
 20
1608.354820251466
 30
0.0
  0
VERTEX
  5
141B
  8
4
  6
DASHED1
 10
1105.855239868162
 20
1591.215538024901
 30
0.0
  0
VERTEX
  5
141C
  8
4
  6
DASHED1
 10
1105.8785095214821
 20
1575.904869079591
 30
0.0
  0
VERTEX
  5
141D
  8
4
  6
DASHED1
 10
1106.1794128417971
 20
1563.8586654663111
 30
0.0
  0
VERTEX
  5
141E
  8
4
  6
DASHED1
 10
1106.7883148193371
 20
1556.513236999511
 30
0.0
  0
VERTEX
  5
141F
  8
4
  6
DASHED1
 10
1108.978179931642
 20
1547.455619812011
 30
0.0
  0
VERTEX
  5
1420
  8
4
  6
DASHED1
 10
1113.8732757568371
 20
1539.0362777709961
 30
0.0
  0
VERTEX
  5
1421
  8
4
  6
DASHED1
 10
1123.5990753173819
 20
1532.2862472534159
 30
0.0
  0
VERTEX
  5
1422
  8
4
  6
DASHED1
 10
1140.281051635742
 20
1528.2359542846659
 30
0.0
  0
VERTEX
  5
1423
  8
4
  6
DASHED1
 10
1159.6440734863279
 20
1526.493247985841
 30
0.0
  0
VERTEX
  5
1424
  8
4
  6
DASHED1
 10
1175.7704772949221
 20
1525.683311462401
 30
0.0
  0
VERTEX
  5
1425
  8
4
  6
DASHED1
 10
1188.322280883787
 20
1525.363945007326
 30
0.0
  0
VERTEX
  5
1426
  8
4
  6
DASHED1
 10
1196.961196899412
 20
1525.094169616701
 30
0.0
  0
VERTEX
  5
1427
  8
4
  6
DASHED1
 10
1202.018188476562
 20
1525.0079574584961
 30
0.0
  0
VERTEX
  5
1428
  8
4
  6
DASHED1
 10
1213.3129730224621
 20
1524.944023132326
 30
0.0
  0
VERTEX
  5
1429
  8
4
  6
DASHED1
 10
1229.957794189452
 20
1524.8997726440409
 30
0.0
  0
VERTEX
  5
142A
  8
4
  6
DASHED1
 10
1251.0649719238279
 20
1524.8730697631811
 30
0.0
  0
VERTEX
  5
142B
  8
4
  6
DASHED1
 10
1275.746826171877
 20
1524.862236022951
 30
0.0
  0
VERTEX
  5
142C
  8
4
  6
DASHED1
 10
1303.115753173827
 20
1524.864219665526
 30
0.0
  0
VERTEX
  5
142D
  8
4
  6
DASHED1
 10
1332.2841491699221
 20
1524.8767318725611
 30
0.0
  0
VERTEX
  5
142E
  8
4
  6
DASHED1
 10
1362.364257812502
 20
1524.897789001466
 30
0.0
  0
VERTEX
  5
142F
  8
4
  6
DASHED1
 10
1392.468627929687
 20
1524.9249496459961
 30
0.0
  0
VERTEX
  5
1430
  8
4
  6
DASHED1
 10
1421.709350585937
 20
1524.9560775756861
 30
0.0
  0
VERTEX
  5
1431
  8
4
  6
DASHED1
 10
1449.198974609377
 20
1524.9888839721659
 30
0.0
  0
VERTEX
  5
1432
  8
4
  6
DASHED1
 10
1474.050048828127
 20
1525.020469665526
 30
0.0
  0
VERTEX
  5
1433
  8
4
  6
DASHED1
 10
1523.8936462402321
 20
1525.0883712768559
 30
0.0
  0
VERTEX
  5
1434
  8
4
  6
DASHED1
 10
1529.313110351562
 20
1525.094169616701
 30
0.0
  0
VERTEX
  5
1435
  8
4
  6
DASHED1
 10
1537.831176757812
 20
1525.4541244506861
 30
0.0
  0
VERTEX
  5
1436
  8
4
  6
DASHED1
 10
1544.5137634277321
 20
1527.5816574096659
 30
0.0
  0
VERTEX
  5
1437
  8
4
  6
DASHED1
 10
1548.8774719238279
 20
1533.047050476076
 30
0.0
  0
VERTEX
  5
1438
  8
4
  6
DASHED1
 10
1550.4393615722679
 20
1543.421806335451
 30
0.0
  0
VERTEX
  5
1439
  8
4
  6
DASHED1
 10
1550.4393615722679
 20
1675.906089782716
 30
0.0
  0
VERTEX
  5
143A
  8
4
  6
DASHED1
 10
1549.1994323730471
 20
1684.071830749511
 30
0.0
  0
VERTEX
  5
143B
  8
4
  6
DASHED1
 10
1545.5443420410179
 20
1689.783042907716
 30
0.0
  0
VERTEX
  5
143C
  8
4
  6
DASHED1
 10
1539.5702209472679
 20
1693.137535095216
 30
0.0
  0
VERTEX
  5
143D
  8
4
  6
DASHED1
 10
1531.374267578127
 20
1694.2340316772461
 30
0.0
  0
SEQEND
  5
143E
  8
4
  6
DASHED1
  0
POLYLINE
  5
A42
  8
4
  6
DASHED1
 66
     1
 10
0.0
 20
0.0
 30
0.0
  0
VERTEX
  5
143F
  8
4
  6
DASHED1
 10
1200.9625854492169
 20
1788.8414230346659
 30
0.0
  0
VERTEX
  5
1440
  8
4
  6
DASHED1
 10
1181.5673675537121
 20
1788.718437194826
 30
0.0
  0
VERTEX
  5
1441
  8
4
  6
DASHED1
 10
1161.109298706052
 20
1788.6938705444311
 30
0.0
  0
VERTEX
  5
1442
  8
4
  6
DASHED1
 10
1146.979660034177
 20
1788.9148178100561
 30
0.0
  0
VERTEX
  5
1443
  8
4
  6
DASHED1
 10
1139.942764282227
 20
1790.854209899901
 30
0.0
  0
VERTEX
  5
1444
  8
4
  6
DASHED1
 10
1135.5147399902321
 20
1794.6098556518559
 30
0.0
  0
VERTEX
  5
1445
  8
4
  6
DASHED1
 10
1133.212036132812
 20
1798.2672348022461
 30
0.0
  0
VERTEX
  5
1446
  8
4
  6
DASHED1
 10
1132.5518646240221
 20
1799.9119796752909
 30
0.0
  0
VERTEX
  5
1447
  8
4
  6
DASHED1
 10
1133.212036132812
 20
1798.2672348022461
 30
0.0
  0
SEQEND
  5
1448
  8
4
  6
DASHED1
  0
POLYLINE
  5
A4D
  8
4
  6
DASHED1
 66
     1
 10
0.0
 20
0.0
 30
0.0
  0
VERTEX
  5
1449
  8
4
  6
DASHED1
 10
1223.787750244142
 20
1792.891563415526
 30
0.0
  0
VERTEX
  5
144A
  8
4
  6
DASHED1
 10
1220.535034179687
 20
1790.616783142091
 30
0.0
  0
VERTEX
  5
144B
  8
4
  6
DASHED1
 10
1216.3161315917971
 20
1789.323905944826
 30
0.0
  0
VERTEX
  5
144C
  8
4
  6
DASHED1
 10
1211.9041290283219
 20
1788.9148178100561
 30
0.0
  0
VERTEX
  5
144D
  8
4
  6
DASHED1
 10
1216.3161315917971
 20
1789.323905944826
 30
0.0
  0
SEQEND
  5
144E
  8
4
  6
DASHED1
  0
POLYLINE
  5
A54
  8
4
  6
DASHED1
 66
     1
 10
0.0
 20
0.0
 30
0.0
  0
VERTEX
  5
144F
  8
4
  6
DASHED1
 10
1200.9625854492169
 20
1972.267021179201
 30
0.0
  0
VERTEX
  5
1450
  8
4
  6
DASHED1
 10
1181.5673675537121
 20
1972.389854431151
 30
0.0
  0
VERTEX
  5
1451
  8
4
  6
DASHED1
 10
1161.109298706052
 20
1972.414268493651
 30
0.0
  0
VERTEX
  5
1452
  8
4
  6
DASHED1
 10
1146.979660034177
 20
1972.193321228026
 30
0.0
  0
VERTEX
  5
1453
  8
4
  6
DASHED1
 10
1139.942764282227
 20
1970.254234313966
 30
0.0
  0
VERTEX
  5
1454
  8
4
  6
DASHED1
 10
1135.5147399902321
 20
1966.498741149901
 30
0.0
  0
VERTEX
  5
1455
  8
4
  6
DASHED1
 10
1133.212036132812
 20
1962.8412094116211
 30
0.0
  0
VERTEX
  5
1456
  8
4
  6
DASHED1
 10
1132.5518646240221
 20
1961.1967697143559
 30
0.0
  0
VERTEX
  5
1457
  8
4
  6
DASHED1
 10
1133.212036132812
 20
1962.8412094116211
 30
0.0
  0
SEQEND
  5
1458
  8
4
  6
DASHED1
  0
POLYLINE
  5
A5F
  8
4
  6
DASHED1
 66
     1
 10
0.0
 20
0.0
 30
0.0
  0
VERTEX
  5
1459
  8
4
  6
DASHED1
 10
1223.787750244142
 20
1968.216728210451
 30
0.0
  0
VERTEX
  5
145A
  8
4
  6
DASHED1
 10
1220.535034179687
 20
1970.491508483886
 30
0.0
  0
VERTEX
  5
145B
  8
4
  6
DASHED1
 10
1216.3161315917971
 20
1971.784233093261
 30
0.0
  0
VERTEX
  5
145C
  8
4
  6
DASHED1
 10
1211.9041290283219
 20
1972.193321228026
 30
0.0
  0
VERTEX
  5
145D
  8
4
  6
DASHED1
 10
1216.3161315917971
 20
1971.784233093261
 30
0.0
  0
SEQEND
  5
145E
  8
4
  6
DASHED1
  0
POLYLINE
  5
A66
  8
4
  6
DASHED1
 66
     1
 10
0.0
 20
0.0
 30
0.0
  0
VERTEX
  5
145F
  8
4
  6
DASHED1
 10
1465.298217773437
 20
1788.8414230346659
 30
0.0
  0
VERTEX
  5
1460
  8
4
  6
DASHED1
 10
1445.903076171872
 20
1788.718437194826
 30
0.0
  0
VERTEX
  5
1461
  8
4
  6
DASHED1
 10
1425.4451599121071
 20
1788.6938705444311
 30
0.0
  0
VERTEX
  5
1462
  8
4
  6
DASHED1
 10
1411.3153686523419
 20
1788.9148178100561
 30
0.0
  0
VERTEX
  5
1463
  8
4
  6
DASHED1
 10
1404.520172119142
 20
1790.3631820678711
 30
0.0
  0
VERTEX
  5
1464
  8
4
  6
DASHED1
 10
1400.6233825683571
 20
1793.0388107299809
 30
0.0
  0
VERTEX
  5
1465
  8
4
  6
DASHED1
 10
1398.8521423339821
 20
1795.616020202636
 30
0.0
  0
VERTEX
  5
1466
  8
4
  6
DASHED1
 10
1398.4334411621071
 20
1796.769737243651
 30
0.0
  0
VERTEX
  5
1467
  8
4
  6
DASHED1
 10
1398.8521423339821
 20
1795.616020202636
 30
0.0
  0
SEQEND
  5
1468
  8
4
  6
DASHED1
  0
POLYLINE
  5
A71
  8
4
  6
DASHED1
 66
     1
 10
0.0
 20
0.0
 30
0.0
  0
VERTEX
  5
1469
  8
4
  6
DASHED1
 10
1488.123535156247
 20
1792.891563415526
 30
0.0
  0
VERTEX
  5
146A
  8
4
  6
DASHED1
 10
1484.8708190917971
 20
1790.616783142091
 30
0.0
  0
VERTEX
  5
146B
  8
4
  6
DASHED1
 10
1480.6519165039081
 20
1789.323905944826
 30
0.0
  0
VERTEX
  5
146C
  8
4
  6
DASHED1
 10
1476.2398376464821
 20
1788.9148178100561
 30
0.0
  0
VERTEX
  5
146D
  8
4
  6
DASHED1
 10
1480.6519165039081
 20
1789.323905944826
 30
0.0
  0
SEQEND
  5
146E
  8
4
  6
DASHED1
  0
POLYLINE
  5
A78
  8
4
  6
DASHED1
 66
     1
 10
0.0
 20
0.0
 30
0.0
  0
VERTEX
  5
146F
  8
4
  6
DASHED1
 10
1465.298217773437
 20
1972.267021179201
 30
0.0
  0
VERTEX
  5
1470
  8
4
  6
DASHED1
 10
1445.903076171872
 20
1972.389854431151
 30
0.0
  0
VERTEX
  5
1471
  8
4
  6
DASHED1
 10
1425.4451599121071
 20
1972.414268493651
 30
0.0
  0
VERTEX
  5
1472
  8
4
  6
DASHED1
 10
1411.3153686523419
 20
1972.193321228026
 30
0.0
  0
VERTEX
  5
1473
  8
4
  6
DASHED1
 10
1404.761718750002
 20
1970.8270492553711
 30
0.0
  0
VERTEX
  5
1474
  8
4
  6
DASHED1
 10
1401.396240234377
 20
1968.3313217163111
 30
0.0
  0
VERTEX
  5
1475
  8
4
  6
DASHED1
 10
1400.1563110351569
 20
1965.934165954591
 30
0.0
  0
VERTEX
  5
1476
  8
4
  6
DASHED1
 10
1399.9793090820319
 20
1964.862388610841
 30
0.0
  0
VERTEX
  5
1477
  8
4
  6
DASHED1
 10
1400.1563110351569
 20
1965.934165954591
 30
0.0
  0
SEQEND
  5
1478
  8
4
  6
DASHED1
  0
POLYLINE
  5
A83
  8
4
  6
DASHED1
 66
     1
 10
0.0
 20
0.0
 30
0.0
  0
VERTEX
  5
1479
  8
4
  6
DASHED1
 10
1488.123535156247
 20
1968.216728210451
 30
0.0
  0
VERTEX
  5
147A
  8
4
  6
DASHED1
 10
1484.8708190917971
 20
1970.491508483886
 30
0.0
  0
VERTEX
  5
147B
  8
4
  6
DASHED1
 10
1480.6519165039081
 20
1971.784233093261
 30
0.0
  0
VERTEX
  5
147C
  8
4
  6
DASHED1
 10
1476.2398376464821
 20
1972.193321228026
 30
0.0
  0
VERTEX
  5
147D
  8
4
  6
DASHED1
 10
1480.6519165039081
 20
1971.784233093261
 30
0.0
  0
SEQEND
  5
147E
  8
4
  6
DASHED1
  0
POLYLINE
  5
A98
  8
4
  6
DASHED1
 66
     1
 10
0.0
 20
0.0
 30
0.0
  0
VERTEX
  5
147F
  8
4
  6
DASHED1
 10
1263.2222595214821
 20
1941.9688644409159
 30
0.0
  0
VERTEX
  5
1480
  8
4
  6
DASHED1
 10
1249.9056091308571
 20
1945.879844665526
 30
0.0
  0
VERTEX
  5
1481
  8
4
  6
DASHED1
 10
1237.1686401367169
 20
1949.5945968627909
 30
0.0
  0
VERTEX
  5
1482
  8
4
  6
DASHED1
 10
1231.4845886230471
 20
1951.2475814819361
 30
0.0
  0
VERTEX
  5
1483
  8
4
  6
DASHED1
 10
1228.2672729492169
 20
1943.6249008178711
 30
0.0
  0
VERTEX
  5
1484
  8
4
  6
DASHED1
 10
1225.550903320312
 20
1934.7441329956059
 30
0.0
  0
VERTEX
  5
1485
  8
4
  6
DASHED1
 10
1223.305572509767
 20
1924.9675216674809
 30
0.0
  0
VERTEX
  5
1486
  8
4
  6
DASHED1
 10
1221.5010681152321
 20
1914.6570053100561
 30
0.0
  0
VERTEX
  5
1487
  8
4
  6
DASHED1
 10
1220.107177734377
 20
1904.1748275756861
 30
0.0
  0
VERTEX
  5
1488
  8
4
  6
DASHED1
 10
1219.0938415527321
 20
1893.8829269409159
 30
0.0
  0
VERTEX
  5
1489
  8
4
  6
DASHED1
 10
1218.430541992187
 20
1884.1429367065409
 30
0.0
  0
VERTEX
  5
148A
  8
4
  6
DASHED1
 10
1218.087524414062
 20
1875.3178634643559
 30
0.0
  0
VERTEX
  5
148B
  8
4
  6
DASHED1
 10
1219.2145385742169
 20
1856.9323959350561
 30
0.0
  0
VERTEX
  5
148C
  8
4
  6
DASHED1
 10
1222.4672546386721
 20
1837.4182357788061
 30
0.0
  0
VERTEX
  5
148D
  8
4
  6
DASHED1
 10
1226.492828369142
 20
1820.751670837401
 30
0.0
  0
VERTEX
  5
148E
  8
4
  6
DASHED1
 10
1229.9388732910179
 20
1810.908378601076
 30
0.0
  0
VERTEX
  5
148F
  8
4
  6
DASHED1
 10
1226.492828369142
 20
1820.751670837401
 30
0.0
  0
SEQEND
  5
1490
  8
4
  6
DASHED1
  0
POLYLINE
  5
AAB
  8
4
  6
DASHED1
 66
     1
 10
0.0
 20
0.0
 30
0.0
  0
VERTEX
  5
1491
  8
4
  6
DASHED1
 10
1270.653442382812
 20
1839.684776306151
 30
0.0
  0
VERTEX
  5
1492
  8
4
  6
DASHED1
 10
1268.6487426757831
 20
1850.247978210451
 30
0.0
  0
VERTEX
  5
1493
  8
4
  6
DASHED1
 10
1267.1269836425779
 20
1862.872642517091
 30
0.0
  0
VERTEX
  5
1494
  8
4
  6
DASHED1
 10
1266.523193359377
 20
1875.841239929201
 30
0.0
  0
VERTEX
  5
1495
  8
4
  6
DASHED1
 10
1267.5215759277321
 20
1890.290702819826
 30
0.0
  0
VERTEX
  5
1496
  8
4
  6
DASHED1
 10
1269.8723449707029
 20
1906.213096618651
 30
0.0
  0
VERTEX
  5
1497
  8
4
  6
DASHED1
 10
1272.609771728517
 20
1920.171684265136
 30
0.0
  0
VERTEX
  5
1498
  8
4
  6
DASHED1
 10
1274.7676696777321
 20
1928.730186462401
 30
0.0
  0
VERTEX
  5
1499
  8
4
  6
DASHED1
 10
1275.4277648925779
 20
1932.9522933959961
 30
0.0
  0
VERTEX
  5
149A
  8
4
  6
DASHED1
 10
1274.6387329101581
 20
1936.1924972534159
 30
0.0
  0
VERTEX
  5
149B
  8
4
  6
DASHED1
 10
1272.883666992187
 20
1938.4504928588849
 30
0.0
  0
VERTEX
  5
149C
  8
4
  6
DASHED1
 10
1270.645507812502
 20
1939.7271957397461
 30
0.0
  0
VERTEX
  5
149D
  8
4
  6
DASHED1
 10
1272.883666992187
 20
1938.4504928588849
 30
0.0
  0
SEQEND
  5
149E
  8
4
  6
DASHED1
  0
POLYLINE
  5
ABA
  8
4
  6
DASHED1
 66
     1
 10
0.0
 20
0.0
 30
0.0
  0
VERTEX
  5
149F
  8
4
  6
DASHED1
 10
1235.5342712402321
 20
1812.242149353026
 30
0.0
  0
VERTEX
  5
14A0
  8
4
  6
DASHED1
 10
1248.037628173827
 20
1815.2940597534159
 30
0.0
  0
VERTEX
  5
14A1
  8
4
  6
DASHED1
 10
1261.0242309570319
 20
1818.640312194826
 30
0.0
  0
VERTEX
  5
14A2
  8
4
  6
DASHED1
 10
1268.0690612792971
 20
1820.8575668334961
 30
0.0
  0
VERTEX
  5
14A3
  8
4
  6
DASHED1
 10
1270.242828369142
 20
1822.592338562011
 30
0.0
  0
VERTEX
  5
14A4
  8
4
  6
DASHED1
 10
1272.3201599121071
 20
1825.3087081909159
 30
0.0
  0
VERTEX
  5
14A5
  8
4
  6
DASHED1
 10
1273.431152343747
 20
1828.810600280761
 30
0.0
  0
VERTEX
  5
14A6
  8
4
  6
DASHED1
 10
1272.7065124511721
 20
1832.901786804201
 30
0.0
  0
VERTEX
  5
14A7
  8
4
  6
DASHED1
 10
1273.431152343747
 20
1828.810600280761
 30
0.0
  0
SEQEND
  5
14A8
  8
4
  6
DASHED1
  0
POLYLINE
  5
AC5
  8
4
  6
DASHED1
 66
     1
 10
0.0
 20
0.0
 30
0.0
  0
VERTEX
  5
14A9
  8
4
  6
DASHED1
 10
1207.6067962646471
 20
1827.561973571776
 30
0.0
  0
VERTEX
  5
14AA
  8
4
  6
DASHED1
 10
1205.8335723876969
 20
1844.610313415526
 30
0.0
  0
VERTEX
  5
14AB
  8
4
  6
DASHED1
 10
1204.9056091308571
 20
1863.609947204591
 30
0.0
  0
VERTEX
  5
14AC
  8
4
  6
DASHED1
 10
1204.690231323242
 20
1883.4996261596659
 30
0.0
  0
VERTEX
  5
14AD
  8
4
  6
DASHED1
 10
1205.054534912108
 20
1903.217491149901
 30
0.0
  0
VERTEX
  5
14AE
  8
4
  6
DASHED1
 10
1205.865615844727
 20
1921.701835632326
 30
0.0
  0
VERTEX
  5
14AF
  8
4
  6
DASHED1
 10
1206.9907989501969
 20
1937.8912582397461
 30
0.0
  0
VERTEX
  5
14B0
  8
4
  6
DASHED1
 10
1208.297256469727
 20
1950.7238998413111
 30
0.0
  0
VERTEX
  5
14B1
  8
4
  6
DASHED1
 10
1206.9907989501969
 20
1937.8912582397461
 30
0.0
  0
SEQEND
  5
14B2
  8
4
  6
DASHED1
  0
POLYLINE
  5
AD0
  8
4
  6
DASHED1
 66
     1
 10
0.0
 20
0.0
 30
0.0
  0
VERTEX
  5
14B3
  8
4
  6
DASHED1
 10
1118.639434814452
 20
1814.5739974975611
 30
0.0
  0
VERTEX
  5
14B4
  8
4
  6
DASHED1
 10
1129.6996917724621
 20
1811.2449874877909
 30
0.0
  0
VERTEX
  5
14B5
  8
4
  6
DASHED1
 10
1144.5158233642569
 20
1808.6584701538061
 30
0.0
  0
VERTEX
  5
14B6
  8
4
  6
DASHED1
 10
1161.6265716552721
 20
1806.722129821776
 30
0.0
  0
VERTEX
  5
14B7
  8
4
  6
DASHED1
 10
1179.5707550048819
 20
1805.3447189331059
 30
0.0
  0
VERTEX
  5
14B8
  8
4
  6
DASHED1
 10
1196.886734008787
 20
1804.433158874511
 30
0.0
  0
VERTEX
  5
14B9
  8
4
  6
DASHED1
 10
1212.1134796142569
 20
1803.896202087401
 30
0.0
  0
VERTEX
  5
14BA
  8
4
  6
DASHED1
 10
1223.7897338867169
 20
1803.641532897951
 30
0.0
  0
VERTEX
  5
14BB
  8
4
  6
DASHED1
 10
1230.4541625976569
 20
1803.5772933959961
 30
0.0
  0
VERTEX
  5
14BC
  8
4
  6
DASHED1
 10
1223.7897338867169
 20
1803.641532897951
 30
0.0
  0
SEQEND
  5
14BD
  8
4
  6
DASHED1
  0
POLYLINE
  5
ADC
  8
4
  6
DASHED1
 66
     1
 10
0.0
 20
0.0
 30
0.0
  0
VERTEX
  5
14BE
  8
4
  6
DASHED1
 10
1123.7872161865221
 20
1847.740043640136
 30
0.0
  0
VERTEX
  5
14BF
  8
4
  6
DASHED1
 10
1134.7015228271471
 20
1845.862144470216
 30
0.0
  0
VERTEX
  5
14C0
  8
4
  6
DASHED1
 10
1148.2607116699221
 20
1844.475273132326
 30
0.0
  0
VERTEX
  5
14C1
  8
4
  6
DASHED1
 10
1162.8886260986319
 20
1843.5058822631811
 30
0.0
  0
VERTEX
  5
14C2
  8
4
  6
DASHED1
 10
1177.009414672852
 20
1842.879814147951
 30
0.0
  0
VERTEX
  5
14C3
  8
4
  6
DASHED1
 10
1189.046768188477
 20
1842.5236740112309
 30
0.0
  0
VERTEX
  5
14C4
  8
4
  6
DASHED1
 10
1197.425064086912
 20
1842.3643722534159
 30
0.0
  0
VERTEX
  5
14C5
  8
4
  6
DASHED1
 10
1200.5680694580069
 20
1842.327445983886
 30
0.0
  0
VERTEX
  5
14C6
  8
4
  6
DASHED1
 10
1197.425064086912
 20
1842.3643722534159
 30
0.0
  0
SEQEND
  5
14C7
  8
4
  6
DASHED1
  0
POLYLINE
  5
AE7
  8
4
  6
DASHED1
 66
     1
 10
0.0
 20
0.0
 30
0.0
  0
VERTEX
  5
14C8
  8
4
  6
DASHED1
 10
1118.639434814452
 20
1947.581962585451
 30
0.0
  0
VERTEX
  5
14C9
  8
4
  6
DASHED1
 10
1129.6996917724621
 20
1950.910820007326
 30
0.0
  0
VERTEX
  5
14CA
  8
4
  6
DASHED1
 10
1144.5158233642569
 20
1953.4973373413111
 30
0.0
  0
VERTEX
  5
14CB
  8
4
  6
DASHED1
 10
1161.6265716552721
 20
1955.433525085451
 30
0.0
  0
VERTEX
  5
14CC
  8
4
  6
DASHED1
 10
1179.5707550048819
 20
1956.811241149901
 30
0.0
  0
VERTEX
  5
14CD
  8
4
  6
DASHED1
 10
1196.886734008787
 20
1957.722343444826
 30
0.0
  0
VERTEX
  5
14CE
  8
4
  6
DASHED1
 10
1212.1134796142569
 20
1958.2591476440409
 30
0.0
  0
VERTEX
  5
14CF
  8
4
  6
DASHED1
 10
1223.7897338867169
 20
1958.5139694213849
 30
0.0
  0
VERTEX
  5
14D0
  8
4
  6
DASHED1
 10
1230.4541625976569
 20
1958.5783615112309
 30
0.0
  0
VERTEX
  5
14D1
  8
4
  6
DASHED1
 10
1223.7897338867169
 20
1958.5139694213849
 30
0.0
  0
SEQEND
  5
14D2
  8
4
  6
DASHED1
  0
POLYLINE
  5
AF3
  8
4
  6
DASHED1
 66
     1
 10
0.0
 20
0.0
 30
0.0
  0
VERTEX
  5
14D3
  8
4
  6
DASHED1
 10
1123.7872161865221
 20
1914.4157638549809
 30
0.0
  0
VERTEX
  5
14D4
  8
4
  6
DASHED1
 10
1134.7015228271471
 20
1916.2933578491211
 30
0.0
  0
VERTEX
  5
14D5
  8
4
  6
DASHED1
 10
1148.2607116699221
 20
1917.680229187011
 30
0.0
  0
VERTEX
  5
14D6
  8
4
  6
DASHED1
 10
1162.8886260986319
 20
1918.6499252319361
 30
0.0
  0
VERTEX
  5
14D7
  8
4
  6
DASHED1
 10
1177.009414672852
 20
1919.2759933471659
 30
0.0
  0
VERTEX
  5
14D8
  8
4
  6
DASHED1
 10
1189.046768188477
 20
1919.6318283081059
 30
0.0
  0
VERTEX
  5
14D9
  8
4
  6
DASHED1
 10
1197.425064086912
 20
1919.7912826538061
 30
0.0
  0
VERTEX
  5
14DA
  8
4
  6
DASHED1
 10
1200.5680694580069
 20
1919.828208923341
 30
0.0
  0
VERTEX
  5
14DB
  8
4
  6
DASHED1
 10
1197.425064086912
 20
1919.7912826538061
 30
0.0
  0
SEQEND
  5
14DC
  8
4
  6
DASHED1
  0
POLYLINE
  5
AFE
  8
4
  6
DASHED1
 66
     1
 10
0.0
 20
0.0
 30
0.0
  0
VERTEX
  5
14DD
  8
4
  6
DASHED1
 10
1278.8899841308571
 20
1819.8102035522461
 30
0.0
  0
VERTEX
  5
14DE
  8
4
  6
DASHED1
 10
1332.4782409667971
 20
1820.8575668334961
 30
0.0
  0
VERTEX
  5
14DF
  8
4
  6
DASHED1
 10
1326.8103637695319
 20
1806.195396423341
 30
0.0
  0
VERTEX
  5
14E0
  8
4
  6
DASHED1
 10
1239.7292175292971
 20
1806.195396423341
 30
0.0
  0
VERTEX
  5
14E1
  8
4
  6
DASHED1
 10
1326.8103637695319
 20
1806.195396423341
 30
0.0
  0
SEQEND
  5
14E2
  8
4
  6
DASHED1
  0
POLYLINE
  5
B05
  8
4
  6
DASHED1
 66
     1
 10
0.0
 20
0.0
 30
0.0
  0
VERTEX
  5
14E3
  8
4
  6
DASHED1
 10
1409.2542114257819
 20
1806.195396423341
 30
0.0
  0
VERTEX
  5
14E4
  8
4
  6
DASHED1
 10
1395.8571472167971
 20
1818.762992858886
 30
0.0
  0
VERTEX
  5
14E5
  8
4
  6
DASHED1
 10
1346.390747070312
 20
1819.8102035522461
 30
0.0
  0
VERTEX
  5
14E6
  8
4
  6
DASHED1
 10
1343.2991638183571
 20
1806.195396423341
 30
0.0
  0
VERTEX
  5
14E7
  8
4
  6
DASHED1
 10
1346.390747070312
 20
1819.8102035522461
 30
0.0
  0
SEQEND
  5
14E8
  8
4
  6
DASHED1
  0
POLYLINE
  5
B0C
  8
4
  6
DASHED1
 66
     1
 10
0.0
 20
0.0
 30
0.0
  0
VERTEX
  5
14E9
  8
4
  6
DASHED1
 10
1418.5291137695331
 20
1818.762992858886
 30
0.0
  0
VERTEX
  5
14EA
  8
4
  6
DASHED1
 10
1498.9119567871071
 20
1819.286674499511
 30
0.0
  0
VERTEX
  5
14EB
  8
4
  6
DASHED1
 10
1517.461914062497
 20
1806.7192306518559
 30
0.0
  0
VERTEX
  5
14EC
  8
4
  6
DASHED1
 10
1432.956909179687
 20
1806.7192306518559
 30
0.0
  0
VERTEX
  5
14ED
  8
4
  6
DASHED1
 10
1517.461914062497
 20
1806.7192306518559
 30
0.0
  0
SEQEND
  5
14EE
  8
4
  6
DASHED1
  0
POLYLINE
  5
B13
  8
4
  6
DASHED1
 66
     1
 10
0.0
 20
0.0
 30
0.0
  0
VERTEX
  5
14EF
  8
4
  6
DASHED1
 10
1278.8899841308571
 20
1941.2980880737309
 30
0.0
  0
VERTEX
  5
14F0
  8
4
  6
DASHED1
 10
1332.4782409667971
 20
1940.250572204591
 30
0.0
  0
VERTEX
  5
14F1
  8
4
  6
DASHED1
 10
1326.8103637695319
 20
1954.9127426147461
 30
0.0
  0
VERTEX
  5
14F2
  8
4
  6
DASHED1
 10
1239.7292175292971
 20
1954.9127426147461
 30
0.0
  0
VERTEX
  5
14F3
  8
4
  6
DASHED1
 10
1326.8103637695319
 20
1954.9127426147461
 30
0.0
  0
SEQEND
  5
14F4
  8
4
  6
DASHED1
  0
POLYLINE
  5
B1A
  8
4
  6
DASHED1
 66
     1
 10
0.0
 20
0.0
 30
0.0
  0
VERTEX
  5
14F5
  8
4
  6
DASHED1
 10
1409.2542114257819
 20
1954.9127426147461
 30
0.0
  0
VERTEX
  5
14F6
  8
4
  6
DASHED1
 10
1395.8571472167971
 20
1942.345298767091
 30
0.0
  0
VERTEX
  5
14F7
  8
4
  6
DASHED1
 10
1346.390747070312
 20
1941.2980880737309
 30
0.0
  0
VERTEX
  5
14F8
  8
4
  6
DASHED1
 10
1343.2991638183571
 20
1954.9127426147461
 30
0.0
  0
VERTEX
  5
14F9
  8
4
  6
DASHED1
 10
1346.390747070312
 20
1941.2980880737309
 30
0.0
  0
SEQEND
  5
14FA
  8
4
  6
DASHED1
  0
POLYLINE
  5
B21
  8
4
  6
DASHED1
 66
     1
 10
0.0
 20
0.0
 30
0.0
  0
VERTEX
  5
14FB
  8
4
  6
DASHED1
 10
1418.5291137695331
 20
1942.345298767091
 30
0.0
  0
VERTEX
  5
14FC
  8
4
  6
DASHED1
 10
1498.9119567871071
 20
1941.8217697143559
 30
0.0
  0
VERTEX
  5
14FD
  8
4
  6
DASHED1
 10
1517.461914062497
 20
1954.389213562011
 30
0.0
  0
VERTEX
  5
14FE
  8
4
  6
DASHED1
 10
1432.956909179687
 20
1954.389213562011
 30
0.0
  0
VERTEX
  5
14FF
  8
4
  6
DASHED1
 10
1517.461914062497
 20
1954.389213562011
 30
0.0
  0
SEQEND
  5
1500
  8
4
  6
DASHED1
  0
POLYLINE
  5
B28
  8
4
  6
DASHED1
 66
     1
 10
0.0
 20
0.0
 30
0.0
  0
VERTEX
  5
1501
  8
4
  6
DASHED1
 10
1343.2991638183571
 20
1920.698417663576
 30
0.0
  0
VERTEX
  5
1502
  8
4
  6
DASHED1
 10
1342.8398742675779
 20
1923.009361267091
 30
0.0
  0
VERTEX
  5
1503
  8
4
  6
DASHED1
 10
1341.587890625002
 20
1924.896568298341
 30
0.0
  0
VERTEX
  5
1504
  8
4
  6
DASHED1
 10
1339.7307434082029
 20
1926.169151306151
 30
0.0
  0
VERTEX
  5
1505
  8
4
  6
DASHED1
 10
1337.456573486327
 20
1926.6357650756861
 30
0.0
  0
VERTEX
  5
1506
  8
4
  6
DASHED1
 10
1339.7307434082029
 20
1926.169151306151
 30
0.0
  0
SEQEND
  5
1507
  8
4
  6
DASHED1
  0
POLYLINE
  5
B30
  8
4
  6
DASHED1
 66
     1
 10
0.0
 20
0.0
 30
0.0
  0
VERTEX
  5
1508
  8
4
  6
DASHED1
 10
1337.456573486327
 20
1833.9489974975611
 30
0.0
  0
VERTEX
  5
1509
  8
4
  6
DASHED1
 10
1339.7307434082029
 20
1834.415458679201
 30
0.0
  0
VERTEX
  5
150A
  8
4
  6
DASHED1
 10
1341.587890625002
 20
1835.688041687011
 30
0.0
  0
VERTEX
  5
150B
  8
4
  6
DASHED1
 10
1342.8398742675779
 20
1837.575401306151
 30
0.0
  0
VERTEX
  5
150C
  8
4
  6
DASHED1
 10
1343.2991638183571
 20
1839.8863449096659
 30
0.0
  0
VERTEX
  5
150D
  8
4
  6
DASHED1
 10
1342.8398742675779
 20
1837.575401306151
 30
0.0
  0
SEQEND
  5
150E
  8
4
  6
DASHED1
  0
POLYLINE
  5
B38
  8
4
  6
DASHED1
 66
     1
 10
0.0
 20
0.0
 30
0.0
  0
VERTEX
  5
150F
  8
4
  6
DASHED1
 10
1290.2258911132819
 20
1839.8863449096659
 30
0.0
  0
VERTEX
  5
1510
  8
4
  6
DASHED1
 10
1290.6848754882819
 20
1837.575401306151
 30
0.0
  0
VERTEX
  5
1511
  8
4
  6
DASHED1
 10
1291.9371643066429
 20
1835.688041687011
 30
0.0
  0
VERTEX
  5
1512
  8
4
  6
DASHED1
 10
1293.7941589355471
 20
1834.415458679201
 30
0.0
  0
VERTEX
  5
1513
  8
4
  6
DASHED1
 10
1296.068481445312
 20
1833.9489974975611
 30
0.0
  0
VERTEX
  5
1514
  8
4
  6
DASHED1
 10
1293.7941589355471
 20
1834.415458679201
 30
0.0
  0
SEQEND
  5
1515
  8
4
  6
DASHED1
  0
POLYLINE
  5
B40
  8
4
  6
DASHED1
 66
     1
 10
0.0
 20
0.0
 30
0.0
  0
VERTEX
  5
1516
  8
4
  6
DASHED1
 10
1296.068481445312
 20
1926.6357650756861
 30
0.0
  0
VERTEX
  5
1517
  8
4
  6
DASHED1
 10
1293.7941589355471
 20
1926.169151306151
 30
0.0
  0
VERTEX
  5
1518
  8
4
  6
DASHED1
 10
1291.9371643066429
 20
1924.896568298341
 30
0.0
  0
VERTEX
  5
1519
  8
4
  6
DASHED1
 10
1290.6848754882819
 20
1923.009361267091
 30
0.0
  0
VERTEX
  5
151A
  8
4
  6
DASHED1
 10
1290.2258911132819
 20
1920.698417663576
 30
0.0
  0
VERTEX
  5
151B
  8
4
  6
DASHED1
 10
1290.6848754882819
 20
1923.009361267091
 30
0.0
  0
SEQEND
  5
151C
  8
4
  6
DASHED1
  0
POLYLINE
  5
B48
  8
4
  6
DASHED1
 66
     1
 10
0.0
 20
0.0
 30
0.0
  0
VERTEX
  5
151D
  8
4
  6
DASHED1
 10
1519.523071289062
 20
1932.919486999511
 30
0.0
  0
VERTEX
  5
151E
  8
4
  6
DASHED1
 10
1537.0422973632831
 20
1951.770957946776
 30
0.0
  0
VERTEX
  5
151F
  8
4
  6
DASHED1
 10
1537.0422973632831
 20
1811.4319076538061
 30
0.0
  0
VERTEX
  5
1520
  8
4
  6
DASHED1
 10
1519.523071289062
 20
1828.712486267091
 30
0.0
  0
VERTEX
  5
1521
  8
4
  6
DASHED1
 10
1537.0422973632831
 20
1811.4319076538061
 30
0.0
  0
SEQEND
  5
1522
  8
4
  6
DASHED1
  0
POLYLINE
  5
B4F
  8
4
  6
DASHED1
 66
     1
 10
0.0
 20
0.0
 30
0.0
  0
VERTEX
  5
1523
  8
4
  6
DASHED1
 10
1509.0474548339821
 20
1928.3325424194311
 30
0.0
  0
VERTEX
  5
1524
  8
4
  6
DASHED1
 10
1508.919586181642
 20
1915.957969665526
 30
0.0
  0
VERTEX
  5
1525
  8
4
  6
DASHED1
 10
1508.828033447267
 20
1899.4476547241211
 30
0.0
  0
VERTEX
  5
1526
  8
4
  6
DASHED1
 10
1508.7666931152321
 20
1880.8813705444311
 30
0.0
  0
VERTEX
  5
1527
  8
4
  6
DASHED1
 10
1508.7293090820319
 20
1862.3399581909159
 30
0.0
  0
VERTEX
  5
1528
  8
4
  6
DASHED1
 10
1508.710235595702
 20
1845.902885437011
 30
0.0
  0
VERTEX
  5
1529
  8
4
  6
DASHED1
 10
1508.703369140622
 20
1833.651451110841
 30
0.0
  0
VERTEX
  5
152A
  8
4
  6
DASHED1
 10
1508.702148437497
 20
1827.6654281616211
 30
0.0
  0
VERTEX
  5
152B
  8
4
  6
DASHED1
 10
1508.703369140622
 20
1833.651451110841
 30
0.0
  0
SEQEND
  5
152C
  8
4
  6
DASHED1
  0
POLYLINE
  5
B5A
  8
4
  6
DASHED1
 66
     1
 10
0.0
 20
0.0
 30
0.0
  0
VERTEX
  5
152D
  8
4
  6
DASHED1
 10
1524.120239257812
 20
1828.099082946776
 30
0.0
  0
VERTEX
  5
152E
  8
4
  6
DASHED1
 10
1527.1877136230471
 20
1841.0838546752909
 30
0.0
  0
VERTEX
  5
152F
  8
4
  6
DASHED1
 10
1529.772094726562
 20
1860.0580062866211
 30
0.0
  0
VERTEX
  5
1530
  8
4
  6
DASHED1
 10
1530.8589782714821
 20
1883.6961593627909
 30
0.0
  0
VERTEX
  5
1531
  8
4
  6
DASHED1
 10
1529.900878906247
 20
1906.3849105834961
 30
0.0
  0
VERTEX
  5
1532
  8
4
  6
DASHED1
 10
1527.4452819824221
 20
1923.428520202636
 30
0.0
  0
VERTEX
  5
1533
  8
4
  6
DASHED1
 10
1524.120239257812
 20
1934.875053405761
 30
0.0
  0
VERTEX
  5
1534
  8
4
  6
DASHED1
 10
1520.5536499023419
 20
1940.774253845216
 30
0.0
  0
VERTEX
  5
1535
  8
4
  6
DASHED1
 10
1516.8984069824221
 20
1942.443565368651
 30
0.0
  0
VERTEX
  5
1536
  8
4
  6
DASHED1
 10
1513.3397521972679
 20
1941.5599288940409
 30
0.0
  0
VERTEX
  5
1537
  8
4
  6
DASHED1
 10
1510.553955078127
 20
1938.712486267091
 30
0.0
  0
VERTEX
  5
1538
  8
4
  6
DASHED1
 10
1509.2175903320319
 20
1934.490531921386
 30
0.0
  0
VERTEX
  5
1539
  8
4
  6
DASHED1
 10
1510.553955078127
 20
1938.712486267091
 30
0.0
  0
SEQEND
  5
153A
  8
4
  6
DASHED1
  0
POLYLINE
  5
B69
  8
4
  6
DASHED1
 66
     1
 10
0.0
 20
0.0
 30
0.0
  0
VERTEX
  5
153B
  8
4
  6
DASHED1
 10
1510.1354064941429
 20
1822.1342697143559
 30
0.0
  0
VERTEX
  5
153C
  8
4
  6
DASHED1
 10
1513.9839782714821
 20
1820.334190368651
 30
0.0
  0
VERTEX
  5
153D
  8
4
  6
DASHED1
 10
1518.4120788574221
 20
1820.8905258178711
 30
0.0
  0
VERTEX
  5
153E
  8
4
  6
DASHED1
 10
1521.584228515622
 20
1822.4284591674809
 30
0.0
  0
VERTEX
  5
153F
  8
4
  6
DASHED1
 10
1518.4120788574221
 20
1820.8905258178711
 30
0.0
  0
SEQEND
  5
1540
  8
4
  6
DASHED1
  0
POLYLINE
  5
B70
  8
4
  6
DASHED1
 66
     1
 10
0.0
 20
0.0
 30
0.0
  0
VERTEX
  5
1541
  8
4
  6
DASHED1
 10
1537.9842224121071
 20
1801.515220642091
 30
0.0
  0
VERTEX
  5
1542
  8
4
  6
DASHED1
 10
1533.9507141113279
 20
1796.769737243651
 30
0.0
  0
VERTEX
  5
1543
  8
4
  6
DASHED1
 10
1537.9842224121071
 20
1801.515220642091
 30
0.0
  0
SEQEND
  5
1544
  8
4
  6
DASHED1
  0
POLYLINE
  5
B75
  8
4
  6
DASHED1
 66
     1
 10
0.0
 20
0.0
 30
0.0
  0
VERTEX
  5
1545
  8
4
  6
DASHED1
 10
1541.6799011230471
 20
1813.003105163576
 30
0.0
  0
VERTEX
  5
1546
  8
4
  6
DASHED1
 10
1541.413940429687
 20
1811.2030258178711
 30
0.0
  0
VERTEX
  5
1547
  8
4
  6
DASHED1
 10
1540.3270568847679
 20
1806.850151062011
 30
0.0
  0
VERTEX
  5
1548
  8
4
  6
DASHED1
 10
1541.413940429687
 20
1811.2030258178711
 30
0.0
  0
SEQEND
  5
1549
  8
4
  6
DASHED1
  0
POLYLINE
  5
B7B
  8
4
  6
DASHED1
 66
     1
 10
0.0
 20
0.0
 30
0.0
  0
VERTEX
  5
154A
  8
4
  6
DASHED1
 10
1536.4626159667971
 20
1962.8984298706059
 30
0.0
  0
VERTEX
  5
154B
  8
4
  6
DASHED1
 10
1539.6185913085919
 20
1958.4472885131811
 30
0.0
  0
VERTEX
  5
154C
  8
4
  6
DASHED1
 10
1541.2288513183571
 20
1954.192680358886
 30
0.0
  0
VERTEX
  5
154D
  8
4
  6
DASHED1
 10
1541.6799011230471
 20
1952.294639587401
 30
0.0
  0
VERTEX
  5
154E
  8
4
  6
DASHED1
 10
1541.2288513183571
 20
1954.192680358886
 30
0.0
  0
SEQEND
  5
154F
  8
4
  6
DASHED1
  0
POLYLINE
  5
B82
  8
4
  6
DASHED1
 66
     1
 10
0.0
 20
0.0
 30
0.0
  0
VERTEX
  5
1550
  8
4
  6
DASHED1
 10
1518.4924926757831
 20
1911.449760437011
 30
0.0
  0
VERTEX
  5
1551
  8
4
  6
DASHED1
 10
1518.2495727539081
 20
1912.6727523803711
 30
0.0
  0
VERTEX
  5
1552
  8
4
  6
DASHED1
 10
1517.587036132812
 20
1913.671440124511
 30
0.0
  0
VERTEX
  5
1553
  8
4
  6
DASHED1
 10
1516.604370117187
 20
1914.344810485841
 30
0.0
  0
VERTEX
  5
1554
  8
4
  6
DASHED1
 10
1515.400756835937
 20
1914.591850280761
 30
0.0
  0
VERTEX
  5
1555
  8
4
  6
DASHED1
 10
1516.604370117187
 20
1914.344810485841
 30
0.0
  0
SEQEND
  5
1556
  8
4
  6
DASHED1
  0
POLYLINE
  5
B8A
  8
4
  6
DASHED1
 66
     1
 10
0.0
 20
0.0
 30
0.0
  0
VERTEX
  5
1557
  8
4
  6
DASHED1
 10
1512.3091735839821
 20
1888.4088363647461
 30
0.0
  0
VERTEX
  5
1558
  8
4
  6
DASHED1
 10
1512.5520935058571
 20
1887.185997009276
 30
0.0
  0
VERTEX
  5
1559
  8
4
  6
DASHED1
 10
1513.2146301269529
 20
1886.1873092651349
 30
0.0
  0
VERTEX
  5
155A
  8
4
  6
DASHED1
 10
1514.1974487304669
 20
1885.5137863159159
 30
0.0
  0
VERTEX
  5
155B
  8
4
  6
DASHED1
 10
1515.400756835937
 20
1885.266899108886
 30
0.0
  0
VERTEX
  5
155C
  8
4
  6
DASHED1
 10
1516.604370117187
 20
1885.5137863159159
 30
0.0
  0
VERTEX
  5
155D
  8
4
  6
DASHED1
 10
1517.587036132812
 20
1886.1873092651349
 30
0.0
  0
VERTEX
  5
155E
  8
4
  6
DASHED1
 10
1518.2495727539081
 20
1887.185997009276
 30
0.0
  0
VERTEX
  5
155F
  8
4
  6
DASHED1
 10
1518.4924926757831
 20
1888.4088363647461
 30
0.0
  0
VERTEX
  5
1560
  8
4
  6
DASHED1
 10
1518.2495727539081
 20
1887.185997009276
 30
0.0
  0
SEQEND
  5
1561
  8
4
  6
DASHED1
  0
POLYLINE
  5
B96
  8
4
  6
DASHED1
 66
     1
 10
0.0
 20
0.0
 30
0.0
  0
VERTEX
  5
1562
  8
4
  6
DASHED1
 10
1514.1974487304669
 20
1914.344810485841
 30
0.0
  0
VERTEX
  5
1563
  8
4
  6
DASHED1
 10
1513.2146301269529
 20
1913.671440124511
 30
0.0
  0
VERTEX
  5
1564
  8
4
  6
DASHED1
 10
1512.5520935058571
 20
1912.6727523803711
 30
0.0
  0
VERTEX
  5
1565
  8
4
  6
DASHED1
 10
1512.3091735839821
 20
1911.449760437011
 30
0.0
  0
VERTEX
  5
1566
  8
4
  6
DASHED1
 10
1512.5520935058571
 20
1912.6727523803711
 30
0.0
  0
SEQEND
  5
1567
  8
4
  6
DASHED1
  0
POLYLINE
  5
B9D
  8
4
  6
DASHED1
 66
     1
 10
0.0
 20
0.0
 30
0.0
  0
VERTEX
  5
1568
  8
4
  6
DASHED1
 10
1518.4924926757831
 20
1874.7941818237309
 30
0.0
  0
VERTEX
  5
1569
  8
4
  6
DASHED1
 10
1518.2495727539081
 20
1876.0173263549809
 30
0.0
  0
VERTEX
  5
156A
  8
4
  6
DASHED1
 10
1517.587036132812
 20
1877.0158615112309
 30
0.0
  0
VERTEX
  5
156B
  8
4
  6
DASHED1
 10
1516.604370117187
 20
1877.6890792846659
 30
0.0
  0
VERTEX
  5
156C
  8
4
  6
DASHED1
 10
1515.400756835937
 20
1877.935966491701
 30
0.0
  0
VERTEX
  5
156D
  8
4
  6
DASHED1
 10
1516.604370117187
 20
1877.6890792846659
 30
0.0
  0
SEQEND
  5
156E
  8
4
  6
DASHED1
  0
POLYLINE
  5
BA5
  8
4
  6
DASHED1
 66
     1
 10
0.0
 20
0.0
 30
0.0
  0
VERTEX
  5
156F
  8
4
  6
DASHED1
 10
1512.3091735839821
 20
1851.7529525756861
 30
0.0
  0
VERTEX
  5
1570
  8
4
  6
DASHED1
 10
1512.5520935058571
 20
1850.529960632326
 30
0.0
  0
VERTEX
  5
1571
  8
4
  6
DASHED1
 10
1513.2146301269529
 20
1849.531425476076
 30
0.0
  0
VERTEX
  5
1572
  8
4
  6
DASHED1
 10
1514.1974487304669
 20
1848.8580551147461
 30
0.0
  0
VERTEX
  5
1573
  8
4
  6
DASHED1
 10
1515.400756835937
 20
1848.6114730834961
 30
0.0
  0
VERTEX
  5
1574
  8
4
  6
DASHED1
 10
1516.604370117187
 20
1848.8580551147461
 30
0.0
  0
VERTEX
  5
1575
  8
4
  6
DASHED1
 10
1517.587036132812
 20
1849.531425476076
 30
0.0
  0
VERTEX
  5
1576
  8
4
  6
DASHED1
 10
1518.2495727539081
 20
1850.529960632326
 30
0.0
  0
VERTEX
  5
1577
  8
4
  6
DASHED1
 10
1518.4924926757831
 20
1851.7529525756861
 30
0.0
  0
VERTEX
  5
1578
  8
4
  6
DASHED1
 10
1518.2495727539081
 20
1850.529960632326
 30
0.0
  0
SEQEND
  5
1579
  8
4
  6
DASHED1
  0
POLYLINE
  5
BB1
  8
4
  6
DASHED1
 66
     1
 10
0.0
 20
0.0
 30
0.0
  0
VERTEX
  5
157A
  8
4
  6
DASHED1
 10
1514.1974487304669
 20
1877.6890792846659
 30
0.0
  0
VERTEX
  5
157B
  8
4
  6
DASHED1
 10
1513.2146301269529
 20
1877.0158615112309
 30
0.0
  0
VERTEX
  5
157C
  8
4
  6
DASHED1
 10
1512.5520935058571
 20
1876.0173263549809
 30
0.0
  0
VERTEX
  5
157D
  8
4
  6
DASHED1
 10
1512.3091735839821
 20
1874.7941818237309
 30
0.0
  0
VERTEX
  5
157E
  8
4
  6
DASHED1
 10
1512.5520935058571
 20
1876.0173263549809
 30
0.0
  0
SEQEND
  5
157F
  8
4
  6
DASHED1
  0
POLYLINE
  5
BD8
  8
4
  6
DASHED1
 66
     1
 10
0.0
 20
0.0
 30
0.0
  0
VERTEX
  5
1580
  8
4
  6
DASHED1
 10
1250.3565063476581
 20
1794.9370040893559
 30
0.0
  0
VERTEX
  5
1581
  8
4
  6
DASHED1
 10
1252.812255859377
 20
1789.275077819826
 30
0.0
  0
VERTEX
  5
1582
  8
4
  6
DASHED1
 10
1254.156860351562
 20
1785.7731857299809
 30
0.0
  0
VERTEX
  5
1583
  8
4
  6
DASHED1
 10
1253.7300720214821
 20
1784.316734313966
 30
0.0
  0
VERTEX
  5
1584
  8
4
  6
DASHED1
 10
1252.2888793945331
 20
1783.1547775268559
 30
0.0
  0
VERTEX
  5
1585
  8
4
  6
DASHED1
 10
1250.7509460449221
 20
1782.3857345581059
 30
0.0
  0
VERTEX
  5
1586
  8
4
  6
DASHED1
 10
1250.034545898437
 20
1782.1075668334961
 30
0.0
  0
VERTEX
  5
1587
  8
4
  6
DASHED1
 10
1249.197296142577
 20
1783.2200851440409
 30
0.0
  0
VERTEX
  5
1588
  8
4
  6
DASHED1
 10
1247.2005310058571
 20
1785.9038009643559
 30
0.0
  0
VERTEX
  5
1589
  8
4
  6
DASHED1
 10
1244.8174133300779
 20
1789.176811218261
 30
0.0
  0
VERTEX
  5
158A
  8
4
  6
DASHED1
 10
1242.820800781247
 20
1792.0569076538061
 30
0.0
  0
VERTEX
  5
158B
  8
4
  6
DASHED1
 10
1241.4760437011721
 20
1794.642509460451
 30
0.0
  0
VERTEX
  5
158C
  8
4
  6
DASHED1
 10
1240.5664672851569
 20
1797.424491882326
 30
0.0
  0
VERTEX
  5
158D
  8
4
  6
DASHED1
 10
1240.1396789550779
 20
1800.009941101076
 30
0.0
  0
VERTEX
  5
158E
  8
4
  6
DASHED1
 10
1240.2443542480471
 20
1802.0064010620099
 30
0.0
  0
VERTEX
  5
158F
  8
4
  6
DASHED1
 10
1240.1396789550779
 20
1800.009941101076
 30
0.0
  0
SEQEND
  5
1590
  8
4
  6
DASHED1
  0
POLYLINE
  5
BEA
  8
4
  6
DASHED1
 66
     1
 10
0.0
 20
0.0
 30
0.0
  0
VERTEX
  5
1591
  8
4
  6
DASHED1
 10
1246.9429626464821
 20
1802.530082702636
 30
0.0
  0
VERTEX
  5
1592
  8
4
  6
DASHED1
 10
1247.9976501464821
 20
1800.2063217163111
 30
0.0
  0
VERTEX
  5
1593
  8
4
  6
DASHED1
 10
1246.9429626464821
 20
1802.530082702636
 30
0.0
  0
SEQEND
  5
1594
  8
4
  6
DASHED1
  0
POLYLINE
  5
BEF
  8
4
  6
DASHED1
 66
     1
 10
0.0
 20
0.0
 30
0.0
  0
VERTEX
  5
1595
  8
4
  6
DASHED1
 10
1250.3565063476581
 20
1966.1712875366211
 30
0.0
  0
VERTEX
  5
1596
  8
4
  6
DASHED1
 10
1252.812255859377
 20
1971.833213806151
 30
0.0
  0
VERTEX
  5
1597
  8
4
  6
DASHED1
 10
1254.156860351562
 20
1975.335258483886
 30
0.0
  0
VERTEX
  5
1598
  8
4
  6
DASHED1
 10
1253.7300720214821
 20
1976.7918624877909
 30
0.0
  0
VERTEX
  5
1599
  8
4
  6
DASHED1
 10
1252.2888793945331
 20
1977.9536666870099
 30
0.0
  0
VERTEX
  5
159A
  8
4
  6
DASHED1
 10
1250.7509460449221
 20
1978.722709655761
 30
0.0
  0
VERTEX
  5
159B
  8
4
  6
DASHED1
 10
1250.034545898437
 20
1979.0007247924809
 30
0.0
  0
VERTEX
  5
159C
  8
4
  6
DASHED1
 10
1249.197296142577
 20
1977.8882064819361
 30
0.0
  0
VERTEX
  5
159D
  8
4
  6
DASHED1
 10
1247.2005310058571
 20
1975.2044906616211
 30
0.0
  0
VERTEX
  5
159E
  8
4
  6
DASHED1
 10
1244.8174133300779
 20
1971.931480407716
 30
0.0
  0
VERTEX
  5
159F
  8
4
  6
DASHED1
 10
1242.820800781247
 20
1969.0515365600561
 30
0.0
  0
VERTEX
  5
15A0
  8
4
  6
DASHED1
 10
1241.4760437011721
 20
1966.4659347534159
 30
0.0
  0
VERTEX
  5
15A1
  8
4
  6
DASHED1
 10
1240.5664672851569
 20
1963.6841049194311
 30
0.0
  0
VERTEX
  5
15A2
  8
4
  6
DASHED1
 10
1240.1396789550779
 20
1961.098350524901
 30
0.0
  0
VERTEX
  5
15A3
  8
4
  6
DASHED1
 10
1240.2443542480471
 20
1959.1020431518559
 30
0.0
  0
VERTEX
  5
15A4
  8
4
  6
DASHED1
 10
1240.1396789550779
 20
1961.098350524901
 30
0.0
  0
SEQEND
  5
15A5
  8
4
  6
DASHED1
  0
POLYLINE
  5
C01
  8
4
  6
DASHED1
 66
     1
 10
0.0
 20
0.0
 30
0.0
  0
VERTEX
  5
15A6
  8
4
  6
DASHED1
 10
1246.9429626464821
 20
1958.5783615112309
 30
0.0
  0
VERTEX
  5
15A7
  8
4
  6
DASHED1
 10
1247.9976501464821
 20
1960.901817321776
 30
0.0
  0
VERTEX
  5
15A8
  8
4
  6
DASHED1
 10
1246.9429626464821
 20
1958.5783615112309
 30
0.0
  0
SEQEND
  5
15A9
  8
4
  6
DASHED1
  0
POLYLINE
  5
C06
  8
4
  6
DASHED1
 66
     1
 10
0.0
 20
0.0
 30
0.0
  0
VERTEX
  5
15AA
  8
4
  6
DASHED1
 10
1103.181289672852
 20
1950.2000656127909
 30
0.0
  0
VERTEX
  5
15AB
  8
4
  6
DASHED1
 10
1101.6113128662121
 20
1938.5815658569361
 30
0.0
  0
VERTEX
  5
15AC
  8
4
  6
DASHED1
 10
1100.669311523437
 20
1920.090049743651
 30
0.0
  0
VERTEX
  5
15AD
  8
4
  6
DASHED1
 10
1100.2104034423819
 20
1900.420097351076
 30
0.0
  0
VERTEX
  5
15AE
  8
4
  6
DASHED1
 10
1100.0897064208971
 20
1885.266899108886
 30
0.0
  0
VERTEX
  5
15AF
  8
4
  6
DASHED1
 10
1100.5969848632819
 20
1868.714775085451
 30
0.0
  0
VERTEX
  5
15B0
  8
4
  6
DASHED1
 10
1101.8288269042971
 20
1845.927452087401
 30
0.0
  0
VERTEX
  5
15B1
  8
4
  6
DASHED1
 10
1103.3504333496071
 20
1824.2204513549809
 30
0.0
  0
VERTEX
  5
15B2
  8
4
  6
DASHED1
 10
1104.727310180662
 20
1810.908378601076
 30
0.0
  0
VERTEX
  5
15B3
  8
4
  6
DASHED1
 10
1107.561172485352
 20
1804.779991149901
 30
0.0
  0
VERTEX
  5
15B4
  8
4
  6
DASHED1
 10
1112.713912963867
 20
1799.977134704591
 30
0.0
  0
VERTEX
  5
15B5
  8
4
  6
DASHED1
 10
1118.639434814452
 20
1796.843437194826
 30
0.0
  0
VERTEX
  5
15B6
  8
4
  6
DASHED1
 10
1123.7921752929669
 20
1795.722373962401
 30
0.0
  0
VERTEX
  5
15B7
  8
4
  6
DASHED1
 10
1129.033493041992
 20
1795.5670394897461
 30
0.0
  0
VERTEX
  5
15B8
  8
4
  6
DASHED1
 10
1135.1927032470719
 20
1795.2641525268559
 30
0.0
  0
VERTEX
  5
15B9
  8
4
  6
DASHED1
 10
1140.675415039062
 20
1795.0596847534159
 30
0.0
  0
VERTEX
  5
15BA
  8
4
  6
DASHED1
 10
1143.8879241943371
 20
1795.1988449096659
 30
0.0
  0
VERTEX
  5
15BB
  8
4
  6
DASHED1
 10
1145.481933593747
 20
1795.8287277221659
 30
0.0
  0
VERTEX
  5
15BC
  8
4
  6
DASHED1
 10
1146.979660034177
 20
1796.704429626466
 30
0.0
  0
VERTEX
  5
15BD
  8
4
  6
DASHED1
 10
1148.090728759767
 20
1797.4817123413111
 30
0.0
  0
VERTEX
  5
15BE
  8
4
  6
DASHED1
 10
1148.5253753662121
 20
1797.817100524901
 30
0.0
  0
VERTEX
  5
15BF
  8
4
  6
DASHED1
 10
1148.090728759767
 20
1797.4817123413111
 30
0.0
  0
SEQEND
  5
15C0
  8
4
  6
DASHED1
  0
POLYLINE
  5
C1E
  8
4
  6
DASHED1
 66
     1
 10
0.0
 20
0.0
 30
0.0
  0
VERTEX
  5
15C1
  8
4
  6
DASHED1
 10
1126.9483032226569
 20
1965.8439865112309
 30
0.0
  0
VERTEX
  5
15C2
  8
4
  6
DASHED1
 10
1120.0968780517569
 20
1964.886802673341
 30
0.0
  0
VERTEX
  5
15C3
  8
4
  6
DASHED1
 10
1115.032714843747
 20
1963.291343688966
 30
0.0
  0
VERTEX
  5
15C4
  8
4
  6
DASHED1
 10
1111.586822509767
 20
1961.319297790526
 30
0.0
  0
VERTEX
  5
15C5
  8
4
  6
DASHED1
 10
1108.334106445312
 20
1958.9055099487309
 30
0.0
  0
VERTEX
  5
15C6
  8
4
  6
DASHED1
 10
1105.467895507812
 20
1955.4118576049809
 30
0.0
  0
VERTEX
  5
15C7
  8
4
  6
DASHED1
 10
1108.334106445312
 20
1958.9055099487309
 30
0.0
  0
SEQEND
  5
15C8
  8
4
  6
DASHED1
  0
POLYLINE
  5
C27
  8
4
  6
DASHED1
 66
     1
 10
0.0
 20
0.0
 30
0.0
  0
VERTEX
  5
15C9
  8
4
  6
DASHED1
 10
1119.026016235352
 20
1955.174736022951
 30
0.0
  0
VERTEX
  5
15CA
  8
4
  6
DASHED1
 10
1124.742111206052
 20
1958.038505554201
 30
0.0
  0
VERTEX
  5
15CB
  8
4
  6
DASHED1
 10
1128.429702758787
 20
1959.6258773803711
 30
0.0
  0
VERTEX
  5
15CC
  8
4
  6
DASHED1
 10
1131.690353393552
 20
1960.5584945678711
 30
0.0
  0
VERTEX
  5
15CD
  8
4
  6
DASHED1
 10
1136.3519897460919
 20
1961.5893783569361
 30
0.0
  0
VERTEX
  5
15CE
  8
4
  6
DASHED1
 10
1140.5306091308571
 20
1962.423881530761
 30
0.0
  0
VERTEX
  5
15CF
  8
4
  6
DASHED1
 10
1142.342208862302
 20
1962.767662048341
 30
0.0
  0
VERTEX
  5
15D0
  8
4
  6
DASHED1
 10
1142.0522155761721
 20
1963.3403244018559
 30
0.0
  0
VERTEX
  5
15D1
  8
4
  6
DASHED1
 10
1141.1826934814469
 20
1964.600395202636
 30
0.0
  0
VERTEX
  5
15D2
  8
4
  6
DASHED1
 10
1139.733413696287
 20
1965.8604660034159
 30
0.0
  0
VERTEX
  5
15D3
  8
4
  6
DASHED1
 10
1137.704605102537
 20
1966.433280944826
 30
0.0
  0
VERTEX
  5
15D4
  8
4
  6
DASHED1
 10
1133.5099639892569
 20
1966.310600280761
 30
0.0
  0
VERTEX
  5
15D5
  8
4
  6
DASHED1
 10
1137.704605102537
 20
1966.433280944826
 30
0.0
  0
SEQEND
  5
15D6
  8
4
  6
DASHED1
  0
POLYLINE
  5
C36
  8
4
  6
DASHED1
 66
     1
 10
0.0
 20
0.0
 30
0.0
  0
VERTEX
  5
15D7
  8
4
  6
DASHED1
 10
1108.374313354492
 20
1844.5121994018559
 30
0.0
  0
VERTEX
  5
15D8
  8
4
  6
DASHED1
 10
1107.898315429687
 20
1858.7254562377909
 30
0.0
  0
VERTEX
  5
15D9
  8
4
  6
DASHED1
 10
1107.367919921877
 20
1875.252250671386
 30
0.0
  0
VERTEX
  5
15DA
  8
4
  6
DASHED1
 10
1106.8616333007819
 20
1892.1472396850561
 30
0.0
  0
VERTEX
  5
15DB
  8
4
  6
DASHED1
 10
1106.4581146240221
 20
1907.464927673341
 30
0.0
  0
VERTEX
  5
15DC
  8
4
  6
DASHED1
 10
1106.235641479492
 20
1919.260581970216
 30
0.0
  0
VERTEX
  5
15DD
  8
4
  6
DASHED1
 10
1106.2730255126969
 20
1925.5882492065409
 30
0.0
  0
VERTEX
  5
15DE
  8
4
  6
DASHED1
 10
1106.917022705077
 20
1931.6020431518559
 30
0.0
  0
VERTEX
  5
15DF
  8
4
  6
DASHED1
 10
1107.947753906247
 20
1937.566856384276
 30
0.0
  0
VERTEX
  5
15E0
  8
4
  6
DASHED1
 10
1109.171432495117
 20
1943.0406417846659
 30
0.0
  0
VERTEX
  5
15E1
  8
4
  6
DASHED1
 10
1110.395187377927
 20
1947.581962585451
 30
0.0
  0
VERTEX
  5
15E2
  8
4
  6
DASHED1
 10
1113.502944946287
 20
1951.5254440307599
 30
0.0
  0
VERTEX
  5
15E3
  8
4
  6
DASHED1
 10
1110.395187377927
 20
1947.581962585451
 30
0.0
  0
SEQEND
  5
15E4
  8
4
  6
DASHED1
  0
POLYLINE
  5
C45
  8
4
  6
DASHED1
 66
     1
 10
0.0
 20
0.0
 30
0.0
  0
VERTEX
  5
15E5
  8
4
  6
DASHED1
 10
1124.7583618164069
 20
1801.9409408569361
 30
0.0
  0
VERTEX
  5
15E6
  8
4
  6
DASHED1
 10
1119.259399414062
 20
1804.7638168334961
 30
0.0
  0
VERTEX
  5
15E7
  8
4
  6
DASHED1
 10
1114.002212524412
 20
1808.813804626466
 30
0.0
  0
VERTEX
  5
15E8
  8
4
  6
DASHED1
 10
1110.3710784912121
 20
1814.901298522951
 30
0.0
  0
VERTEX
  5
15E9
  8
4
  6
DASHED1
 10
1108.9137878417971
 20
1822.166923522951
 30
0.0
  0
VERTEX
  5
15EA
  8
4
  6
DASHED1
 10
1108.712524414062
 20
1828.2542648315409
 30
0.0
  0
VERTEX
  5
15EB
  8
4
  6
DASHED1
 10
1108.849395751952
 20
1830.807212829591
 30
0.0
  0
VERTEX
  5
15EC
  8
4
  6
DASHED1
 10
1108.717407226562
 20
1834.5575180053711
 30
0.0
  0
VERTEX
  5
15ED
  8
4
  6
DASHED1
 10
1108.849395751952
 20
1830.807212829591
 30
0.0
  0
SEQEND
  5
15EE
  8
4
  6
DASHED1
  0
POLYLINE
  5
C50
  8
4
  6
DASHED1
 66
     1
 10
0.0
 20
0.0
 30
0.0
  0
VERTEX
  5
15EF
  8
4
  6
DASHED1
 10
1147.3016967773419
 20
1797.9887619018559
 30
0.0
  0
VERTEX
  5
15F0
  8
4
  6
DASHED1
 10
1144.1455688476569
 20
1798.4062423706059
 30
0.0
  0
VERTEX
  5
15F1
  8
4
  6
DASHED1
 10
1139.8301544189469
 20
1798.921684265136
 30
0.0
  0
VERTEX
  5
15F2
  8
4
  6
DASHED1
 10
1135.128311157227
 20
1799.3882980346659
 30
0.0
  0
VERTEX
  5
15F3
  8
4
  6
DASHED1
 10
1130.1605834960919
 20
1800.197929382326
 30
0.0
  0
VERTEX
  5
15F4
  8
4
  6
DASHED1
 10
1135.128311157227
 20
1799.3882980346659
 30
0.0
  0
SEQEND
  5
15F5
  8
4
  6
DASHED1
  0
POLYLINE
  5
C73
  8
4
  6
DASHED1
 66
     1
 10
0.0
 20
0.0
 30
0.0
  0
VERTEX
  5
15F6
  8
4
  6
DASHED1
 10
1364.9408569335919
 20
1934.4908370971659
 30
0.0
  0
VERTEX
  5
15F7
  8
4
  6
DASHED1
 10
1364.576171875002
 20
1936.324790954591
 30
0.0
  0
VERTEX
  5
15F8
  8
4
  6
DASHED1
 10
1363.5823669433571
 20
1937.8230514526349
 30
0.0
  0
VERTEX
  5
15F9
  8
4
  6
DASHED1
 10
1362.1083679199221
 20
1938.8330307006861
 30
0.0
  0
VERTEX
  5
15FA
  8
4
  6
DASHED1
 10
1360.3034057617169
 20
1939.203208923341
 30
0.0
  0
VERTEX
  5
15FB
  8
4
  6
DASHED1
 10
1362.1083679199221
 20
1938.8330307006861
 30
0.0
  0
SEQEND
  5
15FC
  8
4
  6
DASHED1
  0
POLYLINE
  5
C7B
  8
4
  6
DASHED1
 66
     1
 10
0.0
 20
0.0
 30
0.0
  0
VERTEX
  5
15FD
  8
4
  6
DASHED1
 10
1355.665802001952
 20
1826.617759704591
 30
0.0
  0
VERTEX
  5
15FE
  8
4
  6
DASHED1
 10
1356.030181884767
 20
1824.783500671386
 30
0.0
  0
VERTEX
  5
15FF
  8
4
  6
DASHED1
 10
1357.0239868164081
 20
1823.285240173341
 30
0.0
  0
VERTEX
  5
1600
  8
4
  6
DASHED1
 10
1358.4981384277321
 20
1822.2752609252909
 30
0.0
  0
VERTEX
  5
1601
  8
4
  6
DASHED1
 10
1360.3034057617169
 20
1821.9049301147461
 30
0.0
  0
VERTEX
  5
1602
  8
4
  6
DASHED1
 10
1362.1083679199221
 20
1822.2752609252909
 30
0.0
  0
VERTEX
  5
1603
  8
4
  6
DASHED1
 10
1363.5823669433571
 20
1823.285240173341
 30
0.0
  0
VERTEX
  5
1604
  8
4
  6
DASHED1
 10
1364.576171875002
 20
1824.783500671386
 30
0.0
  0
VERTEX
  5
1605
  8
4
  6
DASHED1
 10
1364.9408569335919
 20
1826.617759704591
 30
0.0
  0
VERTEX
  5
1606
  8
4
  6
DASHED1
 10
1364.576171875002
 20
1824.783500671386
 30
0.0
  0
SEQEND
  5
1607
  8
4
  6
DASHED1
  0
POLYLINE
  5
C87
  8
4
  6
DASHED1
 66
     1
 10
0.0
 20
0.0
 30
0.0
  0
VERTEX
  5
1608
  8
4
  6
DASHED1
 10
1358.4981384277321
 20
1938.8330307006861
 30
0.0
  0
VERTEX
  5
1609
  8
4
  6
DASHED1
 10
1357.0239868164081
 20
1937.8230514526349
 30
0.0
  0
VERTEX
  5
160A
  8
4
  6
DASHED1
 10
1356.030181884767
 20
1936.324790954591
 30
0.0
  0
VERTEX
  5
160B
  8
4
  6
DASHED1
 10
1355.665802001952
 20
1934.4908370971659
 30
0.0
  0
VERTEX
  5
160C
  8
4
  6
DASHED1
 10
1356.030181884767
 20
1936.324790954591
 30
0.0
  0
SEQEND
  5
160D
  8
4
  6
DASHED1
  0
POLYLINE
  5
C8E
  8
4
  6
DASHED1
 66
     1
 10
0.0
 20
0.0
 30
0.0
  0
VERTEX
  5
160E
  8
4
  6
DASHED1
 10
1414.9223937988279
 20
1934.4908370971659
 30
0.0
  0
VERTEX
  5
160F
  8
4
  6
DASHED1
 10
1414.557861328127
 20
1936.324790954591
 30
0.0
  0
VERTEX
  5
1610
  8
4
  6
DASHED1
 10
1413.5640563964821
 20
1937.8230514526349
 30
0.0
  0
VERTEX
  5
1611
  8
4
  6
DASHED1
 10
1412.0899047851581
 20
1938.8330307006861
 30
0.0
  0
VERTEX
  5
1612
  8
4
  6
DASHED1
 10
1410.284790039062
 20
1939.203208923341
 30
0.0
  0
VERTEX
  5
1613
  8
4
  6
DASHED1
 10
1412.0899047851581
 20
1938.8330307006861
 30
0.0
  0
SEQEND
  5
1614
  8
4
  6
DASHED1
  0
POLYLINE
  5
C96
  8
4
  6
DASHED1
 66
     1
 10
0.0
 20
0.0
 30
0.0
  0
VERTEX
  5
1615
  8
4
  6
DASHED1
 10
1405.647338867187
 20
1826.617759704591
 30
0.0
  0
VERTEX
  5
1616
  8
4
  6
DASHED1
 10
1406.0115661621071
 20
1824.783500671386
 30
0.0
  0
VERTEX
  5
1617
  8
4
  6
DASHED1
 10
1407.0056762695319
 20
1823.285240173341
 30
0.0
  0
VERTEX
  5
1618
  8
4
  6
DASHED1
 10
1408.479522705077
 20
1822.2752609252909
 30
0.0
  0
VERTEX
  5
1619
  8
4
  6
DASHED1
 10
1410.284790039062
 20
1821.9049301147461
 30
0.0
  0
VERTEX
  5
161A
  8
4
  6
DASHED1
 10
1412.0899047851581
 20
1822.2752609252909
 30
0.0
  0
VERTEX
  5
161B
  8
4
  6
DASHED1
 10
1413.5640563964821
 20
1823.285240173341
 30
0.0
  0
VERTEX
  5
161C
  8
4
  6
DASHED1
 10
1414.557861328127
 20
1824.783500671386
 30
0.0
  0
VERTEX
  5
161D
  8
4
  6
DASHED1
 10
1414.9223937988279
 20
1826.617759704591
 30
0.0
  0
VERTEX
  5
161E
  8
4
  6
DASHED1
 10
1414.557861328127
 20
1824.783500671386
 30
0.0
  0
SEQEND
  5
161F
  8
4
  6
DASHED1
  0
POLYLINE
  5
CA2
  8
4
  6
DASHED1
 66
     1
 10
0.0
 20
0.0
 30
0.0
  0
VERTEX
  5
1620
  8
4
  6
DASHED1
 10
1408.479522705077
 20
1938.8330307006861
 30
0.0
  0
VERTEX
  5
1621
  8
4
  6
DASHED1
 10
1407.0056762695319
 20
1937.8230514526349
 30
0.0
  0
VERTEX
  5
1622
  8
4
  6
DASHED1
 10
1406.0115661621071
 20
1936.324790954591
 30
0.0
  0
VERTEX
  5
1623
  8
4
  6
DASHED1
 10
1405.647338867187
 20
1934.4908370971659
 30
0.0
  0
VERTEX
  5
1624
  8
4
  6
DASHED1
 10
1406.0115661621071
 20
1936.324790954591
 30
0.0
  0
SEQEND
  5
1625
  8
4
  6
DASHED1
  0
POLYLINE
  5
CA9
  8
4
  6
DASHED1
 66
     1
 10
0.0
 20
0.0
 30
0.0
  0
VERTEX
  5
1626
  8
4
  6
DASHED1
 10
1215.5111541748031
 20
1845.9930648803711
 30
0.0
  0
VERTEX
  5
1627
  8
4
  6
DASHED1
 10
1215.2276458740221
 20
1847.419761657716
 30
0.0
  0
VERTEX
  5
1628
  8
4
  6
DASHED1
 10
1214.4545593261721
 20
1848.584922790526
 30
0.0
  0
VERTEX
  5
1629
  8
4
  6
DASHED1
 10
1213.3080902099621
 20
1849.3705978393559
 30
0.0
  0
VERTEX
  5
162A
  8
4
  6
DASHED1
 10
1211.9041290283219
 20
1849.6586837768559
 30
0.0
  0
VERTEX
  5
162B
  8
4
  6
DASHED1
 10
1213.3080902099621
 20
1849.3705978393559
 30
0.0
  0
SEQEND
  5
162C
  8
4
  6
DASHED1
  0
POLYLINE
  5
CB1
  8
4
  6
DASHED1
 66
     1
 10
0.0
 20
0.0
 30
0.0
  0
VERTEX
  5
162D
  8
4
  6
DASHED1
 10
1208.297256469727
 20
1833.425468444826
 30
0.0
  0
VERTEX
  5
162E
  8
4
  6
DASHED1
 10
1208.580688476562
 20
1831.9987716674809
 30
0.0
  0
VERTEX
  5
162F
  8
4
  6
DASHED1
 10
1209.3536987304669
 20
1830.833457946776
 30
0.0
  0
VERTEX
  5
1630
  8
4
  6
DASHED1
 10
1210.5000915527321
 20
1830.047782897951
 30
0.0
  0
VERTEX
  5
1631
  8
4
  6
DASHED1
 10
1211.9041290283219
 20
1829.7600021362309
 30
0.0
  0
VERTEX
  5
1632
  8
4
  6
DASHED1
 10
1213.3080902099621
 20
1830.047782897951
 30
0.0
  0
VERTEX
  5
1633
  8
4
  6
DASHED1
 10
1214.4545593261721
 20
1830.833457946776
 30
0.0
  0
VERTEX
  5
1634
  8
4
  6
DASHED1
 10
1215.2276458740221
 20
1831.9987716674809
 30
0.0
  0
VERTEX
  5
1635
  8
4
  6
DASHED1
 10
1215.5111541748031
 20
1833.425468444826
 30
0.0
  0
VERTEX
  5
1636
  8
4
  6
DASHED1
 10
1215.2276458740221
 20
1831.9987716674809
 30
0.0
  0
SEQEND
  5
1637
  8
4
  6
DASHED1
  0
POLYLINE
  5
CBD
  8
4
  6
DASHED1
 66
     1
 10
0.0
 20
0.0
 30
0.0
  0
VERTEX
  5
1638
  8
4
  6
DASHED1
 10
1210.5000915527321
 20
1849.3705978393559
 30
0.0
  0
VERTEX
  5
1639
  8
4
  6
DASHED1
 10
1209.3536987304669
 20
1848.584922790526
 30
0.0
  0
VERTEX
  5
163A
  8
4
  6
DASHED1
 10
1208.580688476562
 20
1847.419761657716
 30
0.0
  0
VERTEX
  5
163B
  8
4
  6
DASHED1
 10
1208.297256469727
 20
1845.9930648803711
 30
0.0
  0
VERTEX
  5
163C
  8
4
  6
DASHED1
 10
1208.580688476562
 20
1847.419761657716
 30
0.0
  0
SEQEND
  5
163D
  8
4
  6
DASHED1
  0
POLYLINE
  5
CC4
  8
4
  6
DASHED1
 66
     1
 10
0.0
 20
0.0
 30
0.0
  0
VERTEX
  5
163E
  8
4
  6
DASHED1
 10
1215.5111541748031
 20
1927.1592941284159
 30
0.0
  0
VERTEX
  5
163F
  8
4
  6
DASHED1
 10
1215.2276458740221
 20
1928.586143493651
 30
0.0
  0
VERTEX
  5
1640
  8
4
  6
DASHED1
 10
1214.4545593261721
 20
1929.751304626466
 30
0.0
  0
VERTEX
  5
1641
  8
4
  6
DASHED1
 10
1213.3080902099621
 20
1930.5369796752909
 30
0.0
  0
VERTEX
  5
1642
  8
4
  6
DASHED1
 10
1211.9041290283219
 20
1930.824760437011
 30
0.0
  0
VERTEX
  5
1643
  8
4
  6
DASHED1
 10
1213.3080902099621
 20
1930.5369796752909
 30
0.0
  0
SEQEND
  5
1644
  8
4
  6
DASHED1
  0
POLYLINE
  5
CCC
  8
4
  6
DASHED1
 66
     1
 10
0.0
 20
0.0
 30
0.0
  0
VERTEX
  5
1645
  8
4
  6
DASHED1
 10
1208.297256469727
 20
1914.591850280761
 30
0.0
  0
VERTEX
  5
1646
  8
4
  6
DASHED1
 10
1208.580688476562
 20
1913.1648483276349
 30
0.0
  0
VERTEX
  5
1647
  8
4
  6
DASHED1
 10
1209.3536987304669
 20
1911.9995346069361
 30
0.0
  0
VERTEX
  5
1648
  8
4
  6
DASHED1
 10
1210.5000915527321
 20
1911.214164733886
 30
0.0
  0
VERTEX
  5
1649
  8
4
  6
DASHED1
 10
1211.9041290283219
 20
1910.926078796386
 30
0.0
  0
VERTEX
  5
164A
  8
4
  6
DASHED1
 10
1213.3080902099621
 20
1911.214164733886
 30
0.0
  0
VERTEX
  5
164B
  8
4
  6
DASHED1
 10
1214.4545593261721
 20
1911.9995346069361
 30
0.0
  0
VERTEX
  5
164C
  8
4
  6
DASHED1
 10
1215.2276458740221
 20
1913.1648483276349
 30
0.0
  0
VERTEX
  5
164D
  8
4
  6
DASHED1
 10
1215.5111541748031
 20
1914.591850280761
 30
0.0
  0
VERTEX
  5
164E
  8
4
  6
DASHED1
 10
1215.2276458740221
 20
1913.1648483276349
 30
0.0
  0
SEQEND
  5
164F
  8
4
  6
DASHED1
  0
POLYLINE
  5
CD8
  8
4
  6
DASHED1
 66
     1
 10
0.0
 20
0.0
 30
0.0
  0
VERTEX
  5
1650
  8
4
  6
DASHED1
 10
1210.5000915527321
 20
1930.5369796752909
 30
0.0
  0
VERTEX
  5
1651
  8
4
  6
DASHED1
 10
1209.3536987304669
 20
1929.751304626466
 30
0.0
  0
VERTEX
  5
1652
  8
4
  6
DASHED1
 10
1208.580688476562
 20
1928.586143493651
 30
0.0
  0
VERTEX
  5
1653
  8
4
  6
DASHED1
 10
1208.297256469727
 20
1927.1592941284159
 30
0.0
  0
VERTEX
  5
1654
  8
4
  6
DASHED1
 10
1208.580688476562
 20
1928.586143493651
 30
0.0
  0
SEQEND
  5
1655
  8
4
  6
DASHED1
  0
POLYLINE
  5
CE6
  8
4
  6
DASHED1
 66
     1
 10
0.0
 20
0.0
 30
0.0
  0
VERTEX
  5
1656
  8
4
  6
DASHED1
 10
1099.5744171142569
 20
1871.947196960451
 30
0.0
  0
VERTEX
  5
1657
  8
4
  6
DASHED1
 10
1103.467086791992
 20
1870.658744812011
 30
0.0
  0
VERTEX
  5
1658
  8
4
  6
DASHED1
 10
1105.983184814452
 20
1867.4524154663111
 30
0.0
  0
VERTEX
  5
1659
  8
4
  6
DASHED1
 10
1107.291397094727
 20
1863.3162155151349
 30
0.0
  0
VERTEX
  5
165A
  8
4
  6
DASHED1
 10
1107.561172485352
 20
1859.237846374511
 30
0.0
  0
VERTEX
  5
165B
  8
4
  6
DASHED1
 10
1106.8929138183571
 20
1855.397056579591
 30
0.0
  0
VERTEX
  5
165C
  8
4
  6
DASHED1
 10
1105.306762695312
 20
1851.759819030761
 30
0.0
  0
VERTEX
  5
165D
  8
4
  6
DASHED1
 10
1102.851242065427
 20
1848.9940109252909
 30
0.0
  0
VERTEX
  5
165E
  8
4
  6
DASHED1
 10
1099.5744171142569
 20
1847.7685775756861
 30
0.0
  0
VERTEX
  5
165F
  8
4
  6
DASHED1
 10
1102.851242065427
 20
1848.9940109252909
 30
0.0
  0
SEQEND
  5
1660
  8
4
  6
DASHED1
  0
POLYLINE
  5
CF9
  8
4
  6
DASHED1
 66
     1
 10
0.0
 20
0.0
 30
0.0
  0
VERTEX
  5
1661
  8
4
  6
DASHED1
 10
1099.5744171142569
 20
1915.934165954591
 30
0.0
  0
VERTEX
  5
1662
  8
4
  6
DASHED1
 10
1103.467086791992
 20
1914.645713806151
 30
0.0
  0
VERTEX
  5
1663
  8
4
  6
DASHED1
 10
1105.983184814452
 20
1911.439384460451
 30
0.0
  0
VERTEX
  5
1664
  8
4
  6
DASHED1
 10
1107.291397094727
 20
1907.303031921386
 30
0.0
  0
VERTEX
  5
1665
  8
4
  6
DASHED1
 10
1107.561172485352
 20
1903.2249679565409
 30
0.0
  0
VERTEX
  5
1666
  8
4
  6
DASHED1
 10
1106.8929138183571
 20
1899.3841781616211
 30
0.0
  0
VERTEX
  5
1667
  8
4
  6
DASHED1
 10
1105.306762695312
 20
1895.7464828491211
 30
0.0
  0
VERTEX
  5
1668
  8
4
  6
DASHED1
 10
1102.851242065427
 20
1892.981132507326
 30
0.0
  0
VERTEX
  5
1669
  8
4
  6
DASHED1
 10
1099.5744171142569
 20
1891.755546569826
 30
0.0
  0
VERTEX
  5
166A
  8
4
  6
DASHED1
 10
1102.851242065427
 20
1892.981132507326
 30
0.0
  0
SEQEND
  5
166B
  8
4
  6
DASHED1
  0
POLYLINE
  5
D05
  8
4
  6
DASHED1
 66
     1
 10
0.0
 20
0.0
 30
0.0
  0
VERTEX
  5
166C
  8
4
  6
DASHED1
 10
1278.8899841308571
 20
1825.5707015991211
 30
0.0
  0
VERTEX
  5
166D
  8
4
  6
DASHED1
 10
1291.354125976562
 20
1825.8711471557599
 30
0.0
  0
VERTEX
  5
166E
  8
4
  6
DASHED1
 10
1318.1232299804669
 20
1826.012290954591
 30
0.0
  0
VERTEX
  5
166F
  8
4
  6
DASHED1
 10
1354.275878906247
 20
1826.0307540893559
 30
0.0
  0
VERTEX
  5
1670
  8
4
  6
DASHED1
 10
1394.8909606933571
 20
1825.963310241701
 30
0.0
  0
VERTEX
  5
1671
  8
4
  6
DASHED1
 10
1435.047363281247
 20
1825.8465805053711
 30
0.0
  0
VERTEX
  5
1672
  8
4
  6
DASHED1
 10
1469.8232116699221
 20
1825.7177963256861
 30
0.0
  0
VERTEX
  5
1673
  8
4
  6
DASHED1
 10
1494.2976989746071
 20
1825.6134262084961
 30
0.0
  0
VERTEX
  5
1674
  8
4
  6
DASHED1
 10
1503.5494079589821
 20
1825.5707015991211
 30
0.0
  0
SEQEND
  5
1675
  8
4
  6
DASHED1
  0
POLYLINE
  5
D10
  8
4
  6
DASHED1
 66
     1
 10
0.0
 20
0.0
 30
0.0
  0
VERTEX
  5
1676
  8
4
  6
DASHED1
 10
1531.374267578127
 20
1796.246055603026
 30
0.0
  0
VERTEX
  5
1677
  8
4
  6
DASHED1
 10
1183.0489196777321
 20
1796.246055603026
 30
0.0
  0
VERTEX
  5
1678
  8
4
  6
DASHED1
 10
1167.0512237548819
 20
1796.679862976076
 30
0.0
  0
VERTEX
  5
1679
  8
4
  6
DASHED1
 10
1150.521987915037
 20
1797.751640319826
 30
0.0
  0
VERTEX
  5
167A
  8
4
  6
DASHED1
 10
1136.6015472412121
 20
1799.1180648803711
 30
0.0
  0
VERTEX
  5
167B
  8
4
  6
DASHED1
 10
1128.429702758787
 20
1800.435508728026
 30
0.0
  0
VERTEX
  5
167C
  8
4
  6
DASHED1
 10
1123.3413543701181
 20
1801.9079818725611
 30
0.0
  0
VERTEX
  5
167D
  8
4
  6
DASHED1
 10
1117.4800720214821
 20
1805.1483383178711
 30
0.0
  0
VERTEX
  5
167E
  8
4
  6
DASHED1
 10
1112.198623657227
 20
1811.922935485841
 30
0.0
  0
VERTEX
  5
167F
  8
4
  6
DASHED1
 10
1108.849395751952
 20
1823.9995040893559
 30
0.0
  0
VERTEX
  5
1680
  8
4
  6
DASHED1
 10
1107.9366149902321
 20
1834.0942611694311
 30
0.0
  0
VERTEX
  5
1681
  8
4
  6
DASHED1
 10
1107.150558471677
 20
1848.1041183471659
 30
0.0
  0
VERTEX
  5
1682
  8
4
  6
DASHED1
 10
1106.521514892577
 20
1864.5927658081059
 30
0.0
  0
VERTEX
  5
1683
  8
4
  6
DASHED1
 10
1106.079849243162
 20
1882.1252670288061
 30
0.0
  0
VERTEX
  5
1684
  8
4
  6
DASHED1
 10
1105.855239868162
 20
1899.2645492553711
 30
0.0
  0
VERTEX
  5
1685
  8
4
  6
DASHED1
 10
1105.8785095214821
 20
1914.5752182006861
 30
0.0
  0
VERTEX
  5
1686
  8
4
  6
DASHED1
 10
1106.1794128417971
 20
1926.621269226076
 30
0.0
  0
VERTEX
  5
1687
  8
4
  6
DASHED1
 10
1106.7883148193371
 20
1933.9666976928711
 30
0.0
  0
VERTEX
  5
1688
  8
4
  6
DASHED1
 10
1108.978179931642
 20
1943.0243148803711
 30
0.0
  0
VERTEX
  5
1689
  8
4
  6
DASHED1
 10
1113.8732757568371
 20
1951.443809509276
 30
0.0
  0
VERTEX
  5
168A
  8
4
  6
DASHED1
 10
1123.5990753173819
 20
1958.1938400268559
 30
0.0
  0
VERTEX
  5
168B
  8
4
  6
DASHED1
 10
1140.281051635742
 20
1962.243980407716
 30
0.0
  0
VERTEX
  5
168C
  8
4
  6
DASHED1
 10
1159.6440734863279
 20
1963.986991882326
 30
0.0
  0
VERTEX
  5
168D
  8
4
  6
DASHED1
 10
1175.7704772949221
 20
1964.7966232299809
 30
0.0
  0
VERTEX
  5
168E
  8
4
  6
DASHED1
 10
1188.322280883787
 20
1965.1159896850561
 30
0.0
  0
VERTEX
  5
168F
  8
4
  6
DASHED1
 10
1196.961196899412
 20
1965.385917663576
 30
0.0
  0
VERTEX
  5
1690
  8
4
  6
DASHED1
 10
1202.018188476562
 20
1965.4719772338849
 30
0.0
  0
VERTEX
  5
1691
  8
4
  6
DASHED1
 10
1213.3129730224621
 20
1965.536064147951
 30
0.0
  0
VERTEX
  5
1692
  8
4
  6
DASHED1
 10
1229.957794189452
 20
1965.580162048341
 30
0.0
  0
VERTEX
  5
1693
  8
4
  6
DASHED1
 10
1251.0649719238279
 20
1965.606864929201
 30
0.0
  0
VERTEX
  5
1694
  8
4
  6
DASHED1
 10
1275.746826171877
 20
1965.617851257326
 30
0.0
  0
VERTEX
  5
1695
  8
4
  6
DASHED1
 10
1303.115753173827
 20
1965.6157150268559
 30
0.0
  0
VERTEX
  5
1696
  8
4
  6
DASHED1
 10
1332.2841491699221
 20
1965.603202819826
 30
0.0
  0
VERTEX
  5
1697
  8
4
  6
DASHED1
 10
1362.364257812502
 20
1965.5822982788061
 30
0.0
  0
VERTEX
  5
1698
  8
4
  6
DASHED1
 10
1392.468627929687
 20
1965.555137634276
 30
0.0
  0
VERTEX
  5
1699
  8
4
  6
DASHED1
 10
1421.709350585937
 20
1965.524009704591
 30
0.0
  0
VERTEX
  5
169A
  8
4
  6
DASHED1
 10
1449.198974609377
 20
1965.4912033081059
 30
0.0
  0
VERTEX
  5
169B
  8
4
  6
DASHED1
 10
1474.050048828127
 20
1965.4594650268559
 30
0.0
  0
VERTEX
  5
169C
  8
4
  6
DASHED1
 10
1523.8936462402321
 20
1965.391563415526
 30
0.0
  0
VERTEX
  5
169D
  8
4
  6
DASHED1
 10
1529.313110351562
 20
1965.385917663576
 30
0.0
  0
VERTEX
  5
169E
  8
4
  6
DASHED1
 10
1537.831176757812
 20
1965.0261154174809
 30
0.0
  0
VERTEX
  5
169F
  8
4
  6
DASHED1
 10
1544.5137634277321
 20
1962.8984298706059
 30
0.0
  0
VERTEX
  5
16A0
  8
4
  6
DASHED1
 10
1548.8774719238279
 20
1957.433036804201
 30
0.0
  0
VERTEX
  5
16A1
  8
4
  6
DASHED1
 10
1550.4393615722679
 20
1947.058433532716
 30
0.0
  0
VERTEX
  5
16A2
  8
4
  6
DASHED1
 10
1550.4393615722679
 20
1814.5739974975611
 30
0.0
  0
VERTEX
  5
16A3
  8
4
  6
DASHED1
 10
1549.1994323730471
 20
1806.408256530761
 30
0.0
  0
VERTEX
  5
16A4
  8
4
  6
DASHED1
 10
1545.5443420410179
 20
1800.6970443725611
 30
0.0
  0
VERTEX
  5
16A5
  8
4
  6
DASHED1
 10
1539.5702209472679
 20
1797.3425521850561
 30
0.0
  0
VERTEX
  5
16A6
  8
4
  6
DASHED1
 10
1531.374267578127
 20
1796.246055603026
 30
0.0
  0
SEQEND
  5
16A7
  8
4
  6
DASHED1
  0
CIRCLE
  5
D43
  8
6
  6
CONTINUOUS
 10
976.73994445800724
 20
2405.5732955932608
 30
0.0
 40
17.5
  0
CIRCLE
  5
D44
  8
6
  6
CONTINUOUS
 10
1635.7399597167971
 20
2405.5732955932608
 30
0.0
 40
17.5
  0
CIRCLE
  5
D45
  8
6
  6
CONTINUOUS
 10
335.90654754638638
 20
2014.7400131225611
 30
0.0
 40
17.5
  0
CIRCLE
  5
D46
  8
6
  6
CONTINUOUS
 10
335.90654754638638
 20
637.74004364013604
 30
0.0
 40
17.5
  0
CIRCLE
  5
D47
  8
6
  6
CONTINUOUS
 10
335.90654754638638
 20
1016.740058898926
 30
0.0
 40
17.5
  0
CIRCLE
  5
D48
  8
6
  6
CONTINUOUS
 10
335.90654754638638
 20
1475.739921569826
 30
0.0
 40
17.5
  0
CIRCLE
  5
D49
  8
6
  6
CONTINUOUS
 10
2835.7398071289072
 20
2405.5732955932608
 30
0.0
 40
17.5
  0
CIRCLE
  5
D4A
  8
6
  6
CONTINUOUS
 10
3494.7400512695331
 20
2405.5732955932608
 30
0.0
 40
17.5
  0
CIRCLE
  5
D4B
  8
6
  6
CONTINUOUS
 10
2244.9065246582022
 20
2014.7400131225611
 30
0.0
 40
17.5
  0
CIRCLE
  5
D4C
  8
6
  6
CONTINUOUS
 10
2244.9065246582022
 20
637.74004364013604
 30
0.0
 40
17.5
  0
CIRCLE
  5
D4D
  8
6
  6
CONTINUOUS
 10
2244.9065246582022
 20
1016.740058898926
 30
0.0
 40
17.5
  0
CIRCLE
  5
D4E
  8
6
  6
CONTINUOUS
 10
2244.9065246582022
 20
1475.739921569826
 30
0.0
 40
17.5
  0
ARC
  5
D4F
  8
5
  6
CONTINUOUS
 62
     6
 10
971.73986816406239
 20
1301.2401046752909
 30
0.0
 40
115.0
 50
180.00000500895601
 51
268.00670559662501
  0
ARC
  5
D50
  8
5
  6
CONTINUOUS
 62
     6
 10
971.73986816406239
 20
1071.239952087401
 30
0.0
 40
115.0
 50
91.993270270341284
 51
180.00000500895601
  0
ARC
  5
D51
  8
5
  6
CONTINUOUS
 62
     6
 10
971.73986816406239
 20
772.24001312256098
 30
0.0
 40
110.0
 50
90.000002504478203
 51
180.00000500895601
  0
TEXT
  5
1143
  8
6
 10
961.73994445800724
 20
2390.5732955932608
 30
0.0
 40
20.0
  1
X1
  0
TEXT
  5
1144
  8
6
 10
1620.7398071289081
 20
2390.5732955932608
 30
0.0
 40
20.0
  1
X2
  0
TEXT
  5
1146
  8
6
 10
320.90654754638638
 20
622.74004364013604
 30
0.0
 40
20.0
  1
Y1
  0
TEXT
  5
1147
  8
6
 10
320.90654754638638
 20
1001.740058898926
 30
0.0
 40
20.0
  1
Y2
  0
TEXT
  5
1148
  8
6
 10
320.90654754638638
 20
1460.740074157716
 30
0.0
 40
20.0
  1
Y3
  0
TEXT
  5
1149
  8
6
 10
320.90654754638638
 20
1999.7400131225611
 30
0.0
 40
20.0
  1
Y4
  0
TEXT
  5
1161
  8
6
 10
2820.7398071289072
 20
2390.5732955932608
 30
0.0
 40
20.0
  1
X1
  0
TEXT
  5
1162
  8
6
 10
3479.7397460937518
 20
2390.5732955932608
 30
0.0
 40
20.0
  1
X2
  0
TEXT
  5
1163
  8
6
 10
2229.9065246582022
 20
622.74004364013604
 30
0.0
 40
20.0
  1
Y1
  0
TEXT
  5
1164
  8
6
 10
2229.9065246582022
 20
1001.740058898926
 30
0.0
 40
20.0
  1
Y2
  0
TEXT
  5
1165
  8
6
 10
2229.9065246582022
 20
1460.740074157716
 30
0.0
 40
20.0
  1
Y3
  0
TEXT
  5
1166
  8
6
 10
2229.9065246582022
 20
1999.7400131225611
 30
0.0
 40
20.0
  1
Y4
  0
LINE
  5
116F
  8
7
  6
CONTINUOUS
 62
     6
 10
15.73995971679677
 20
7.7400150299072301
 30
0.0
 11
15.73995971679677
 21
2747.7405014038059
 31
0.0
  0
LINE
  5
1170
  8
7
  6
CONTINUOUS
 62
     6
 10
15.73995971679677
 20
2747.7405014038059
 30
0.0
 11
3990.7398071289081
 21
2747.7405014038059
 31
0.0
  0
LINE
  5
1171
  8
4
  6
DASHED1
 10
1093.3910980224621
 20
1871.947196960451
 30
0.0
 11
1093.3910980224621
 21
1847.7685775756861
 31
0.0
  0
LINE
  5
1172
  8
4
  6
DASHED1
 10
1093.3910980224621
 20
1847.7685775756861
 30
0.0
 11
1099.5744171142569
 21
1847.7685775756861
 31
0.0
  0
LINE
  5
1173
  8
4
  6
DASHED1
 10
1099.5744171142569
 20
1847.7685775756861
 30
0.0
 11
1099.5744171142569
 21
1871.947196960451
 31
0.0
  0
LINE
  5
1174
  8
4
  6
DASHED1
 10
1099.5744171142569
 20
1871.947196960451
 30
0.0
 11
1099.5744171142569
 21
1847.7685775756861
 31
0.0
  0
LINE
  5
1175
  8
4
  6
DASHED1
 10
1093.3910980224621
 20
1871.947196960451
 30
0.0
 11
1099.5744171142569
 21
1871.947196960451
 31
0.0
  0
LINE
  5
1177
  8
4
  6
DASHED1
 10
1093.3910980224621
 20
1915.934165954591
 30
0.0
 11
1093.3910980224621
 21
1891.755546569826
 31
0.0
  0
LINE
  5
1178
  8
4
  6
DASHED1
 10
1093.3910980224621
 20
1915.934165954591
 30
0.0
 11
1099.5744171142569
 21
1915.934165954591
 31
0.0
  0
LINE
  5
1179
  8
4
  6
DASHED1
 10
1099.5744171142569
 20
1891.755546569826
 30
0.0
 11
1099.5744171142569
 21
1915.934165954591
 31
0.0
  0
LINE
  5
117A
  8
4
  6
DASHED1
 10
1099.5744171142569
 20
1915.934165954591
 30
0.0
 11
1099.5744171142569
 21
1891.755546569826
 31
0.0
  0
LINE
  5
117B
  8
4
  6
DASHED1
 10
1093.3910980224621
 20
1891.755546569826
 30
0.0
 11
1099.5744171142569
 21
1891.755546569826
 31
0.0
  0
LINE
  5
117C
  8
4
  6
DASHED1
 10
1093.3910980224621
 20
1574.5459213256861
 30
0.0
 11
1093.3910980224621
 21
1598.7243881225611
 31
0.0
  0
LINE
  5
117D
  8
4
  6
DASHED1
 10
1093.3910980224621
 20
1598.7243881225611
 30
0.0
 11
1099.5744171142569
 21
1598.7243881225611
 31
0.0
  0
LINE
  5
117E
  8
4
  6
DASHED1
 10
1099.5744171142569
 20
1598.7243881225611
 30
0.0
 11
1099.5744171142569
 21
1574.5459213256861
 31
0.0
  0
LINE
  5
117F
  8
4
  6
DASHED1
 10
1099.5744171142569
 20
1574.5459213256861
 30
0.0
 11
1099.5744171142569
 21
1598.7243881225611
 31
0.0
  0
LINE
  5
1180
  8
4
  6
DASHED1
 10
1093.3910980224621
 20
1574.5459213256861
 30
0.0
 11
1099.5744171142569
 21
1574.5459213256861
 31
0.0
  0
LINE
  5
1181
  8
4
  6
DASHED1
 10
1093.3910980224621
 20
1618.532890319826
 30
0.0
 11
1099.5744171142569
 21
1618.532890319826
 31
0.0
  0
LINE
  5
1191
  8
CENTERLINE
  6
CENTER
 10
976.73971557617176
 20
2330.037296508031
 30
0.0
 11
976.73971557617176
 21
437.74000549316401
 31
0.0
  0
LINE
  5
1194
  8
1
  6
CONTINUOUS
 10
967.23982238769725
 20
647.74004364013604
 30
0.0
 11
986.23991394042741
 21
647.74004364013604
 31
0.0
  0
LINE
  5
1195
  8
1
  6
CONTINUOUS
 10
986.73994445800724
 20
628.24007415771609
 30
0.0
 11
986.73994445800724
 21
647.24001312256098
 31
0.0
  0
LINE
  5
1196
  8
1
  6
CONTINUOUS
 10
1625.7398071289081
 20
647.24001312256098
 30
0.0
 11
1625.7398071289081
 21
628.24007415771609
 31
0.0
  0
LINE
  5
1197
  8
1
  6
CONTINUOUS
 10
1085.2399291992169
 20
1466.239952087401
 30
0.0
 11
1085.2399291992169
 21
1485.2398910522461
 31
0.0
  0
LINE
  5
1198
  8
1
  6
CONTINUOUS
 10
986.73994445800724
 20
1485.2398910522461
 30
0.0
 11
1085.2399291992169
 21
1485.2398910522461
 31
0.0
  0
LINE
  5
1199
  8
1
  6
CONTINUOUS
 10
1085.2399291992169
 20
1466.2398757934609
 30
0.0
 11
986.73994445800724
 21
1466.2398757934609
 31
0.0
  0
LINE
  5
11A7
  8
1
  6
CONTINUOUS
 10
1645.2399291992169
 20
2004.7400131225611
 30
0.0
 11
1645.2399291992169
 21
1485.740074157716
 31
0.0
  0
LINE
  5
11AA
  8
1
  6
CONTINUOUS
 10
1585.7398071289069
 20
1485.2398910522461
 30
0.0
 11
1546.7400207519529
 21
1485.2398910522461
 31
0.0
  0
LINE
  5
11AB
  8
1
  6
CONTINUOUS
 10
1546.740020751952
 20
1485.2398910522461
 30
0.0
 11
1546.7400207519529
 21
1466.2398757934609
 31
0.0
  0
LINE
  5
11AC
  8
1
  6
CONTINUOUS
 10
1546.7400207519529
 20
1466.2398757934609
 30
0.0
 11
1625.7398071289081
 21
1466.2398757934609
 31
0.0
  0
LINE
  5
11AD
  8
1
  6
CONTINUOUS
 10
1546.740020751952
 20
1485.2398910522461
 30
0.0
 11
1625.7398071289081
 21
1485.2398910522461
 31
0.0
  0
LINE
  5
11AE
  8
1
  6
CONTINUOUS
 10
1645.2399291992169
 20
647.74004364013604
 30
0.0
 11
1645.2399291992169
 21
1006.739982604981
 31
0.0
  0
LINE
  5
11AF
  8
5
  6
CONTINUOUS
 62
     6
 10
986.43910655289426
 20
1306.7399826049809
 30
0.0
 11
986.43910655289426
 21
1301.2401046752909
 31
0.0
  0
LINE
  5
11B0
  8
5
  6
CONTINUOUS
 62
     6
 10
986.15575857591978
 20
1071.239952087401
 30
0.0
 11
986.15575857592
 21
1065.7399978637709
 31
0.0
  0
LINE
  5
11B2
  8
5
  6
CONTINUOUS
 62
     6
 10
967.0406297752304
 20
887.74004364013615
 30
0.0
 11
967.0406297752304
 21
882.24001312256075
 31
0.0
  0
LINE
  5
11B3
  8
5
  6
CONTINUOUS
 62
     6
 10
986.23991394042741
 20
887.74004364013615
 30
0.0
 11
986.23991394042719
 21
882.24001312256109
 31
0.0
  0
LINE
  5
11B5
  8
5
  6
CONTINUOUS
 62
     6
 10
986.23991394042741
 20
772.24001312256075
 30
0.0
 11
986.23991394042741
 21
766.73998260498115
 31
0.0
  0
ENDSEC
  0
EOF
