  0
SECTION
  2
HEADER
  9
$ACADVER
  1
AC1009
  9
$INSBASE
 10
0.0
 20
0.0
 30
0.0
  9
$EXTMIN
 10
7637.6345177563353
 20
-0.0000000000218279
 30
0.0
  9
$EXTMAX
 10
91737.634517756363
 20
59399.999999999971
 30
0.0
  9
$LIMMIN
 10
0.0
 20
0.0
  9
$LIMMAX
 10
12.0
 20
9.0
  9
$ORTHOMODE
 70
     1
  9
$REGENMODE
 70
     1
  9
$FILLMODE
 70
     1
  9
$QTEXTMODE
 70
     0
  9
$MIRRTEXT
 70
     0
  9
$DRAGMODE
 70
     2
  9
$LTSCALE
 40
600.0
  9
$OSMODE
 70
   111
  9
$ATTMODE
 70
     1
  9
$TEXTSIZE
 40
300.0
  9
$TRACEWID
 40
0.05
  9
$TEXTSTYLE
  7
テキスト
  9
$CLAYER
  8
詳細
  9
$CELTYPE
  6
CONTINUOUS
  9
$CECOLOR
 62
   256
  9
$DIMSCALE
 40
1.0
  9
$DIMASZ
 40
300.0
  9
$DIMEXO
 40
1000.0
  9
$DIMDLI
 40
250.0
  9
$DIMRND
 40
0.0
  9
$DIMDLE
 40
0.0
  9
$DIMEXE
 40
100.0
  9
$DIMTP
 40
0.0
  9
$DIMTM
 40
0.0
  9
$DIMTXT
 40
500.0
  9
$DIMCEN
 40
300.0
  9
$DIMTSZ
 40
0.0
  9
$DIMTOL
 70
     0
  9
$DIMLIM
 70
     0
  9
$DIMTIH
 70
     0
  9
$DIMTOH
 70
     0
  9
$DIMSE1
 70
     0
  9
$DIMSE2
 70
     0
  9
$DIMTAD
 70
     1
  9
$DIMZIN
 70
     0
  9
$DIMBLK
  1
OPEN30
  9
$DIMASO
 70
     1
  9
$DIMSHO
 70
     1
  9
$DIMPOST
  1

  9
$DIMAPOST
  1

  9
$DIMALT
 70
     0
  9
$DIMALTD
 70
     2
  9
$DIMALTF
 40
25.399999999999999
  9
$DIMLFAC
 40
1.0
  9
$DIMTOFL
 70
     0
  9
$DIMTVP
 40
0.0
  9
$DIMTIX
 70
     0
  9
$DIMSOXD
 70
     0
  9
$DIMSAH
 70
     0
  9
$DIMBLK1
  1

  9
$DIMBLK2
  1

  9
$DIMSTYLE
  2
30_矢印
  9
$DIMCLRD
 70
     0
  9
$DIMCLRE
 70
     0
  9
$DIMCLRT
 70
     0
  9
$DIMTFAC
 40
1.0
  9
$DIMGAP
 40
200.0
  9
$LUNITS
 70
     2
  9
$LUPREC
 70
     4
  9
$SKETCHINC
 40
0.1
  9
$FILLETRAD
 40
0.0
  9
$AUNITS
 70
     0
  9
$AUPREC
 70
     0
  9
$MENU
  1
.
  9
$ELEVATION
 40
0.0
  9
$PELEVATION
 40
0.0
  9
$THICKNESS
 40
0.0
  9
$LIMCHECK
 70
     0
  9
$BLIPMODE
 70
     0
  9
$CHAMFERA
 40
0.0
  9
$CHAMFERB
 40
0.0
  9
$SKPOLY
 70
     0
  9
$TDCREATE
 40
2455007.3016793169
  9
$TDUPDATE
 40
2455070.9147676039
  9
$TDINDWG
 40
0.5372247685
  9
$TDUSRTIMER
 40
0.5372242361
  9
$USRTIMER
 70
     1
  9
$ANGBASE
 50
0.0
  9
$ANGDIR
 70
     0
  9
$PDMODE
 70
     3
  9
$PDSIZE
 40
0.0
  9
$PLINEWID
 40
0.0
  9
$COORDS
 70
     1
  9
$SPLFRAME
 70
     0
  9
$SPLINETYPE
 70
     6
  9
$SPLINESEGS
 70
     8
  9
$ATTDIA
 70
     0
  9
$ATTREQ
 70
     1
  9
$HANDLING
 70
     1
  9
$HANDSEED
  5
64C
  9
$SURFTAB1
 70
     6
  9
$SURFTAB2
 70
     6
  9
$SURFTYPE
 70
     6
  9
$SURFU
 70
     6
  9
$SURFV
 70
     6
  9
$UCSNAME
  2

  9
$UCSORG
 10
0.0
 20
0.0
 30
0.0
  9
$UCSXDIR
 10
1.0
 20
0.0
 30
0.0
  9
$UCSYDIR
 10
0.0
 20
1.0
 30
0.0
  9
$PUCSNAME
  2

  9
$PUCSORG
 10
0.0
 20
0.0
 30
0.0
  9
$PUCSXDIR
 10
1.0
 20
0.0
 30
0.0
  9
$PUCSYDIR
 10
0.0
 20
1.0
 30
0.0
  9
$USERI1
 70
     0
  9
$USERI2
 70
     0
  9
$USERI3
 70
     0
  9
$USERI4
 70
     0
  9
$USERI5
 70
     0
  9
$USERR1
 40
0.0
  9
$USERR2
 40
0.0
  9
$USERR3
 40
0.0
  9
$USERR4
 40
0.0
  9
$USERR5
 40
0.0
  9
$WORLDVIEW
 70
     1
  9
$SHADEDGE
 70
     3
  9
$SHADEDIF
 70
    70
  9
$TILEMODE
 70
     1
  9
$MAXACTVP
 70
    64
  9
$PLIMCHECK
 70
     0
  9
$PEXTMIN
 10
-0.016803260430379
 20
0.0388144486073543
 30
-0.0015258207003583
  9
$PEXTMAX
 10
11.274702511238051
 20
7.8316712978028127
 30
0.0000000349246037
  9
$PLIMMIN
 10
-0.2312499519408218
 20
-0.2312499894870548
  9
$PLIMMAX
 10
11.4620827502153
 20
8.0354164529034477
  9
$UNITMODE
 70
     0
  9
$VISRETAIN
 70
     1
  9
$PLINEGEN
 70
     0
  9
$PSLTSCALE
 70
     1
  0
ENDSEC
  0
SECTION
  2
TABLES
  0
TABLE
  2
VPORT
 70
     2
  0
VPORT
  2
*ACTIVE
 70
     0
 10
0.0
 20
0.0
 11
1.0
 21
1.0
 12
48585.881541888601
 22
30056.14895506878
 13
0.0
 23
0.0
 14
0.5
 24
0.5
 15
0.5
 25
0.5
 16
0.0
 26
0.0
 36
1.0
 17
0.0
 27
0.0
 37
0.0
 40
119044.4915802037
 41
1.7322720694645439
 42
50.0
 43
0.0
 44
0.0
 50
0.0
 51
0.0
 71
     0
 72
  1000
 73
     1
 74
     2
 75
     0
 76
     0
 77
     0
 78
     0
  0
ENDTAB
  0
TABLE
  2
LTYPE
 70
    11
  0
LTYPE
  2
CONTINUOUS
 70
     0
  3
Solid line
 72
    65
 73
     0
 40
0.0
  0
LTYPE
  2
ACAD_ISO03W100
 70
     0
  3
ISO dash space __    __    __    __    __    __
 72
    65
 73
     2
 40
30.0
 49
12.0
 49
-18.0
  0
LTYPE
  2
ACAD_ISO02W100
 70
     0
  3
ISO dash __ __ __ __ __ __ __ __ __ __ __ __ __
 72
    65
 73
     2
 40
15.0
 49
12.0
 49
-3.0
  0
LTYPE
  2
ACAD_ISO05W100
 70
     0
  3
ISO long-dash double-dot ____ .. ____ .. ____ .
 72
    65
 73
     6
 40
33.0
 49
24.0
 49
-3.0
 49
0.0
 49
-3.0
 49
0.0
 49
-3.0
  0
LTYPE
  2
ACAD_ISO07W100
 70
     0
  3
ISO dot . . . . . . . . . . . . . . . . . . . .
 72
    65
 73
     2
 40
3.0
 49
0.0
 49
-3.0
  0
LTYPE
  2
CENTER
 70
     0
  3
Center ____ _ ____ _ ____ _ ____ _ ____ _ ____
 72
    65
 73
     4
 40
2.0
 49
1.25
 49
-0.25
 49
0.25
 49
-0.25
  0
LTYPE
  2
CENTER2
 70
     0
  3
Center (.5x) ___ _ ___ _ ___ _ ___ _ ___ _ ___
 72
    65
 73
     4
 40
1.125
 49
0.75
 49
-0.125
 49
0.125
 49
-0.125
  0
LTYPE
  2
DASHDOT
 70
     0
  3
Dash dot __ . __ . __ . __ . __ . __ . __ . __
 72
    65
 73
     4
 40
1.0
 49
0.5
 49
-0.25
 49
0.0
 49
-0.25
  0
LTYPE
  2
DASHED2
 70
     0
  3
Dashed (.5x) _ _ _ _ _ _ _ _ _ _ _ _ _ _ _ _ _
 72
    65
 73
     2
 40
0.375
 49
0.25
 49
-0.125
  0
LTYPE
  2
DASHEDX2
 70
     0
  3
Dashed (2x) ____  ____  ____  ____  ____  ___
 72
    65
 73
     2
 40
1.5
 49
1.0
 49
-0.5
  0
LTYPE
  2
HIDDEN
 70
     0
  3
Hidden __ __ __ __ __ __ __ __ __ __ __ __ __ _
 72
    65
 73
     2
 40
0.375
 49
0.25
 49
-0.125
  0
ENDTAB
  0
TABLE
  2
LAYER
 70
    10
  0
LAYER
  2
0
 70
     0
 62
     7
  6
CONTINUOUS
  0
LAYER
  2
詳細
 70
     0
 62
     5
  6
CONTINUOUS
  0
LAYER
  2
ZUWAKU
 70
     0
 62
     7
  6
CONTINUOUS
  0
LAYER
  2
MADOWAKU
 70
     0
 62
     4
  6
CONTINUOUS
  0
LAYER
  2
CENTER
 70
     0
 62
     3
  6
CONTINUOUS
  0
LAYER
  2
寸法
 70
     0
 62
     7
  6
CONTINUOUS
  0
LAYER
  2
DEFPOINTS
 70
     0
 62
     7
  6
CONTINUOUS
  0
LAYER
  2
1
 70
     0
 62
     7
  6
CONTINUOUS
  0
LAYER
  2
詳細-2
 70
     0
 62
     1
  6
CENTER2
  0
LAYER
  2
13
 70
     0
 62
     7
  6
CONTINUOUS
  0
ENDTAB
  0
TABLE
  2
STYLE
 70
     4
  0
STYLE
  2
STANDARD
 70
     0
 40
0.0
 41
1.0
 50
0.0
 71
     0
 42
0.2
  3
txt
  4

  0
STYLE
  2
テキスト
 70
     0
 40
0.0
 41
1.0
 50
0.0
 71
     0
 42
300.0
  3
txt.shx
  4
bigfont.shx
  0
STYLE
  2

 70
     1
 40
0.0
 41
1.0
 50
0.0
 71
     0
 42
0.2
  3
ltypeshp.shx
  4

  0
STYLE
  2
寸法
 70
     0
 40
0.0
 41
0.7
 50
0.0
 71
     0
 42
0.2
  3
txt.shx
  4
bigfont.shx
  0
ENDTAB
  0
TABLE
  2
VIEW
 70
     0
  0
ENDTAB
  0
TABLE
  2
UCS
 70
     0
  0
ENDTAB
  0
TABLE
  2
APPID
 70
     1
  0
APPID
  2
ACAD
 70
     0
  0
ENDTAB
  0
TABLE
  2
DIMSTYLE
 70
     2
  0
DIMSTYLE
  2
STANDARD
 70
     0
  3

  4

  5

  6

  7

 40
1.0
 41
0.18
 42
0.0625
 43
0.38
 44
0.18
 45
0.0
 46
0.0
 47
0.0
 48
0.0
140
0.18
141
0.09
142
0.0
143
25.399999999999999
144
1.0
145
0.0
146
1.0
147
0.09
 71
     0
 72
     0
 73
     1
 74
     1
 75
     0
 76
     0
 77
     0
 78
     0
170
     0
171
     2
172
     0
173
     0
174
     0
175
     0
176
     0
177
     0
178
     0
  0
DIMSTYLE
  2
30_矢印
 70
     0
  3

  4

  5

  6

  7

 40
1.0
 41
300.0
 42
1000.0
 43
250.0
 44
100.0
 45
0.0
 46
0.0
 47
0.0
 48
0.0
140
500.0
141
300.0
142
0.0
143
25.399999999999999
144
1.0
145
0.0
146
1.0
147
200.0
 71
     0
 72
     0
 73
     0
 74
     0
 75
     0
 76
     0
 77
     1
 78
     0
170
     0
171
     2
172
     0
173
     0
174
     0
175
     0
176
     0
177
     0
178
     0
  0
ENDTAB
  0
ENDSEC
  0
SECTION
  2
BLOCKS
  0
BLOCK
  8
0
  2
$MODEL_SPACE
 70
     0
 10
0.0
 20
0.0
 30
0.0
  3
$MODEL_SPACE
  1

  0
ENDBLK
  5
2F3
  8
0
  0
BLOCK
 67
     1
  8
0
  2
$PAPER_SPACE
 70
     0
 10
0.0
 20
0.0
 30
0.0
  3
$PAPER_SPACE
  1

  0
ENDBLK
  5
2EF
 67
     1
  8
0
  0
BLOCK
  8
0
  2
_OPEN30
 70
     0
 10
0.0
 20
0.0
 30
0.0
  3
_OPEN30
  1

  0
LINE
  5
1C4
  8
0
  6
BYBLOCK
 62
     0
 10
-1.0
 20
0.26794919
 30
0.0
 11
0.0
 21
0.0
 31
0.0
  0
LINE
  5
1C5
  8
0
  6
BYBLOCK
 62
     0
 10
0.0
 20
0.0
 30
0.0
 11
-1.0
 21
-0.26794919
 31
0.0
  0
LINE
  5
1C6
  8
0
  6
BYBLOCK
 62
     0
 10
0.0
 20
0.0
 30
0.0
 11
-1.0
 21
0.0
 31
0.0
  0
ENDBLK
  5
1C8
  8
0
  0
BLOCK
  8
0
  2
_CLOSEDBLANK
 70
     0
 10
0.0
 20
0.0
 30
0.0
  3
_CLOSEDBLANK
  1

  0
LINE
  5
299
  8
0
  6
BYBLOCK
 62
     0
 10
-1.0
 20
0.1666666666666666
 30
0.0
 11
0.0
 21
0.0
 31
0.0
  0
LINE
  5
29A
  8
0
  6
BYBLOCK
 62
     0
 10
0.0
 20
0.0
 30
0.0
 11
-1.0
 21
-0.1666666666666666
 31
0.0
  0
LINE
  5
29B
  8
0
  6
BYBLOCK
 62
     0
 10
-1.0
 20
0.1666666666666666
 30
0.0
 11
-1.0
 21
-0.1666666666666666
 31
0.0
  0
ENDBLK
  5
29D
  8
0
  0
BLOCK
  8
0
  2
_DOT
 70
     0
 10
0.0
 20
0.0
 30
0.0
  3
_DOT
  1

  0
POLYLINE
  5
29F
  8
0
  6
BYBLOCK
 62
     0
 66
     1
 10
0.0
 20
0.0
 30
0.0
 70
     1
 40
0.5
 41
0.5
  0
VERTEX
  5
55D
  8
0
  6
BYBLOCK
 62
     0
 10
-0.25
 20
0.0
 30
0.0
 42
1.0
  0
VERTEX
  5
55E
  8
0
  6
BYBLOCK
 62
     0
 10
0.25
 20
0.0
 30
0.0
 42
1.0
  0
SEQEND
  5
55F
  8
0
  6
BYBLOCK
 62
     0
  0
LINE
  5
2A0
  8
0
  6
BYBLOCK
 62
     0
 10
-0.5
 20
0.0
 30
0.0
 11
-1.0
 21
0.0
 31
0.0
  0
ENDBLK
  5
2A2
  8
0
  0
BLOCK
  8
0
  2
*U5
 70
     1
 10
0.0
 20
0.0
 30
0.0
  3
*U5
  1

  0
LINE
  5
569
  8
詳細
 10
17544.853448400201
 20
53431.147821766572
 30
0.0
 11
34544.85346841476
 21
53431.147821766572
 31
0.0
  0
LINE
  5
56A
  8
詳細
 10
34544.85346841476
 20
53431.147821766572
 30
0.0
 11
34544.85346841476
 21
48715.514394812359
 31
0.0
  0
LINE
  5
56B
  8
詳細
 10
34544.85346841476
 20
48715.514394812359
 30
0.0
 11
39744.853474684249
 21
48715.514394812359
 31
0.0
  0
LINE
  5
56C
  8
詳細
 10
39744.853474684249
 20
48715.514394812359
 30
0.0
 11
39744.853474684249
 21
43239.133618093278
 31
0.0
  0
LINE
  5
56D
  8
詳細
 10
39744.853474684249
 20
43239.133618093278
 30
0.0
 11
17544.853448400201
 21
43239.133618093292
 31
0.0
  0
LINE
  5
56E
  8
詳細
 10
17544.853448400201
 20
43239.133618093292
 30
0.0
 11
17544.853448400201
 21
53231.147821766572
 31
0.0
  0
LINE
  5
56F
  8
詳細
 10
17544.853448400201
 20
53231.147821766572
 30
0.0
 11
17544.853448400201
 21
53431.147821766572
 31
0.0
  0
LINE
  5
570
  8
詳細
 10
17944.853448400201
 20
53031.147821766572
 30
0.0
 11
24744.853457081121
 21
53031.147821766572
 31
0.0
  0
LINE
  5
571
  8
詳細
 10
25144.853457081121
 20
53031.147821766572
 30
0.0
 11
28744.853461903909
 21
53031.147821766572
 31
0.0
  0
LINE
  5
572
  8
詳細
 10
29144.853461903909
 20
53031.147821766572
 30
0.0
 11
34144.85346841476
 21
53031.147821766572
 31
0.0
  0
LINE
  5
573
  8
詳細
 10
34144.85346841476
 20
53031.147821766572
 30
0.0
 11
34144.85346841476
 21
48315.514394812359
 31
0.0
  0
LINE
  5
574
  8
詳細
 10
34544.85346841476
 20
48315.514394812359
 30
0.0
 11
39344.853474684249
 21
48315.514394812359
 31
0.0
  0
LINE
  5
575
  8
詳細
 10
39344.853474684249
 20
48315.514394812359
 30
0.0
 11
39344.853474684249
 21
43639.13361809327
 31
0.0
  0
LINE
  5
576
  8
詳細
 10
39344.853474684249
 20
43639.13361809327
 30
0.0
 11
34544.85346841476
 21
43639.13361809327
 31
0.0
  0
LINE
  5
577
  8
詳細
 10
34144.85346841476
 20
43639.13361809327
 30
0.0
 11
29144.853461903909
 21
43639.133618093278
 31
0.0
  0
LINE
  5
578
  8
詳細
 10
28744.853461903909
 20
43639.133618093278
 30
0.0
 11
25144.853457081121
 21
43639.133618093278
 31
0.0
  0
LINE
  5
579
  8
詳細
 10
24744.853457081121
 20
43639.133618093278
 30
0.0
 11
17944.853448400201
 21
43639.133618093292
 31
0.0
  0
LINE
  5
57A
  8
詳細
 10
17944.853448400201
 20
43639.133618093292
 30
0.0
 11
17944.85344840019
 21
53031.147821766572
 31
0.0
  0
ENDBLK
  5
57C
  8
0
  0
BLOCK
  8
0
  2
*U6
 70
     1
 10
0.0
 20
0.0
 30
0.0
  3
*U6
  1

  0
LINE
  5
57E
  8
詳細
 10
25144.853457081121
 20
53031.147821766572
 30
0.0
 11
25144.853457081121
 21
43639.133618093278
 31
0.0
  0
LINE
  5
57F
  8
詳細
 10
24744.853457081121
 20
53031.147821766572
 30
0.0
 11
24744.853457081121
 21
43639.133618093278
 31
0.0
  0
ENDBLK
  5
581
  8
0
  0
BLOCK
  8
0
  2
*U7
 70
     1
 10
0.0
 20
0.0
 30
0.0
  3
*U7
  1

  0
LINE
  5
583
  8
詳細
 10
29144.853461903909
 20
53031.147821766572
 30
0.0
 11
29144.853461903909
 21
43639.133618093278
 31
0.0
  0
LINE
  5
584
  8
詳細
 10
28744.853461903909
 20
53031.147821766572
 30
0.0
 11
28744.853461903909
 21
43639.133618093278
 31
0.0
  0
ENDBLK
  5
586
  8
0
  0
BLOCK
  8
0
  2
*U8
 70
     1
 10
0.0
 20
0.0
 30
0.0
  3
*U8
  1

  0
LINE
  5
588
  8
詳細
 10
34544.85346841476
 20
48315.514394812359
 30
0.0
 11
34544.85346841476
 21
43639.133618093278
 31
0.0
  0
LINE
  5
589
  8
詳細
 10
34144.85346841476
 20
48315.514394812359
 30
0.0
 11
34144.85346841476
 21
43639.133618093278
 31
0.0
  0
ENDBLK
  5
58B
  8
0
  0
BLOCK
  8
0
  2
*U9
 70
     1
 10
0.0
 20
0.0
 30
0.0
  3
*U9
  1

  0
TEXT
  5
58D
  8
詳細-2
  6
CONTINUOUS
 10
17506.439574457101
 20
54800.284215659172
 30
0.0
 40
300.0
  1
X1
  7
テキスト
  0
ENDBLK
  5
58F
  8
0
  0
BLOCK
  8
0
  2
*U10
 70
     1
 10
0.0
 20
0.0
 30
0.0
  3
*U10
  1

  0
TEXT
  5
591
  8
詳細-2
  6
CONTINUOUS
 10
24696.551388987318
 20
54800.284215659172
 30
0.0
 40
300.0
  1
X2
  7
テキスト
  0
ENDBLK
  5
593
  8
0
  0
BLOCK
  8
0
  2
*U11
 70
     1
 10
0.0
 20
0.0
 30
0.0
  3
*U11
  1

  0
TEXT
  5
595
  8
詳細-2
  6
CONTINUOUS
 10
28653.11150152727
 20
54802.9445157956
 30
0.0
 40
300.0
  1
X3
  7
テキスト
  0
ENDBLK
  5
597
  8
0
  0
BLOCK
  8
0
  2
*U12
 70
     1
 10
0.0
 20
0.0
 30
0.0
  3
*U12
  1

  0
TEXT
  5
599
  8
詳細-2
  6
CONTINUOUS
 10
34036.854380966914
 20
54800.898131075272
 30
0.0
 40
300.0
  1
X4
  7
テキスト
  0
ENDBLK
  5
59B
  8
0
  0
BLOCK
  8
0
  2
*U13
 70
     1
 10
0.0
 20
0.0
 30
0.0
  3
*U13
  1

  0
TEXT
  5
59D
  8
詳細-2
  6
CONTINUOUS
 10
39274.693818821092
 20
54803.456111975684
 30
0.0
 40
300.0
  1
X5
  7
テキスト
  0
ENDBLK
  5
59F
  8
0
  0
BLOCK
  8
0
  2
*U14
 70
     1
 10
0.0
 20
0.0
 30
0.0
  3
*U14
  1

  0
TEXT
  5
5A1
  8
詳細-2
  6
CONTINUOUS
 10
16069.404059661079
 20
53080.533906350473
 30
0.0
 40
300.0
  1
Y1
  7
テキスト
  0
ENDBLK
  5
5A3
  8
0
  0
BLOCK
  8
0
  2
*U15
 70
     1
 10
0.0
 20
0.0
 30
0.0
  3
*U15
  1

  0
TEXT
  5
5A5
  8
詳細-2
  6
CONTINUOUS
 10
16041.98250440871
 20
48364.900479396281
 30
0.0
 40
300.0
  1
Y2
  7
テキスト
  0
ENDBLK
  5
5A7
  8
0
  0
BLOCK
  8
0
  2
*U16
 70
     1
 10
0.0
 20
0.0
 30
0.0
  3
*U16
  1

  0
TEXT
  5
5A9
  8
詳細-2
  6
CONTINUOUS
 10
16040.44771586846
 20
43291.180002813613
 30
0.0
 40
300.0
  1
Y3
  7
テキスト
  0
ENDBLK
  5
5AB
  8
0
  0
BLOCK
  8
0
  2
*U17
 70
     1
 10
0.0
 20
0.0
 30
0.0
  3
*U17
  1

  0
TEXT
  5
5AD
  8
詳細-2
  6
CONTINUOUS
 10
39274.693818821077
 20
35442.976397130369
 30
0.0
 40
300.0
  1
X5
  7
テキスト
  0
ENDBLK
  5
5AF
  8
0
  0
BLOCK
  8
0
  2
*U18
 70
     1
 10
0.0
 20
0.0
 30
0.0
  3
*U18
  1

  0
TEXT
  5
5B1
  8
詳細-2
  6
CONTINUOUS
 10
34036.854380966892
 20
35440.418416229957
 30
0.0
 40
300.0
  1
X4
  7
テキスト
  0
ENDBLK
  5
5B3
  8
0
  0
BLOCK
  8
0
  2
*U19
 70
     1
 10
0.0
 20
0.0
 30
0.0
  3
*U19
  1

  0
TEXT
  5
5B5
  8
詳細-2
  6
CONTINUOUS
 10
28653.111501527252
 20
35442.464800950293
 30
0.0
 40
300.0
  1
X3
  7
テキスト
  0
ENDBLK
  5
5B7
  8
0
  0
BLOCK
  8
0
  2
*U20
 70
     1
 10
0.0
 20
0.0
 30
0.0
  3
*U20
  1

  0
TEXT
  5
5B9
  8
詳細-2
  6
CONTINUOUS
 10
24696.551388987311
 20
35439.804500813858
 30
0.0
 40
300.0
  1
X2
  7
テキスト
  0
ENDBLK
  5
5BB
  8
0
  0
BLOCK
  8
0
  2
*U21
 70
     1
 10
0.0
 20
0.0
 30
0.0
  3
*U21
  1

  0
TEXT
  5
5BD
  8
詳細-2
  6
CONTINUOUS
 10
17506.439574457079
 20
35439.804500813858
 30
0.0
 40
300.0
  1
X1
  7
テキスト
  0
ENDBLK
  5
5BF
  8
0
  0
BLOCK
  8
0
  2
*U22
 70
     1
 10
0.0
 20
0.0
 30
0.0
  3
*U22
  1

  0
TEXT
  5
5C1
  8
詳細-2
  6
CONTINUOUS
 10
16040.44771586846
 20
23930.700287968299
 30
0.0
 40
300.0
  1
Y3
  7
テキスト
  0
ENDBLK
  5
5C3
  8
0
  0
BLOCK
  8
0
  2
*U23
 70
     1
 10
0.0
 20
0.0
 30
0.0
  3
*U23
  1

  0
TEXT
  5
5C5
  8
詳細-2
  6
CONTINUOUS
 10
16041.98250440871
 20
29004.420764550981
 30
0.0
 40
300.0
  1
Y2
  7
テキスト
  0
ENDBLK
  5
5C7
  8
0
  0
BLOCK
  8
0
  2
*U24
 70
     1
 10
0.0
 20
0.0
 30
0.0
  3
*U24
  1

  0
TEXT
  5
5C9
  8
詳細-2
  6
CONTINUOUS
 10
16069.404059661059
 20
33720.054191505158
 30
0.0
 40
300.0
  1
Y1
  7
テキスト
  0
ENDBLK
  5
5CB
  8
0
  0
BLOCK
  8
0
  2
*U25
 70
     1
 10
0.0
 20
0.0
 30
0.0
  3
*U25
  1

  0
TEXT
  5
5CD
  8
詳細-2
  6
CONTINUOUS
 10
16069.404059661059
 20
15687.3917479103
 30
0.0
 40
300.0
  1
Y1
  7
テキスト
  0
ENDBLK
  5
5CF
  8
0
  0
BLOCK
  8
0
  2
*U26
 70
     1
 10
0.0
 20
0.0
 30
0.0
  3
*U26
  1

  0
TEXT
  5
5D1
  8
詳細-2
  6
CONTINUOUS
 10
16041.98250440871
 20
10971.75832095612
 30
0.0
 40
300.0
  1
Y2
  7
テキスト
  0
ENDBLK
  5
5D3
  8
0
  0
BLOCK
  8
0
  2
*U27
 70
     1
 10
0.0
 20
0.0
 30
0.0
  3
*U27
  1

  0
TEXT
  5
5D5
  8
詳細-2
  6
CONTINUOUS
 10
16040.44771586846
 20
5898.0378443734508
 30
0.0
 40
300.0
  1
Y3
  7
テキスト
  0
ENDBLK
  5
5D7
  8
0
  0
BLOCK
  8
0
  2
*U28
 70
     1
 10
0.0
 20
0.0
 30
0.0
  3
*U28
  1

  0
TEXT
  5
5D9
  8
詳細-2
  6
CONTINUOUS
 10
17506.439574457079
 20
17407.142057219
 30
0.0
 40
300.0
  1
X1
  7
テキスト
  0
ENDBLK
  5
5DB
  8
0
  0
BLOCK
  8
0
  2
*U29
 70
     1
 10
0.0
 20
0.0
 30
0.0
  3
*U29
  1

  0
TEXT
  5
5DD
  8
詳細-2
  6
CONTINUOUS
 10
24696.551388987311
 20
17407.142057219
 30
0.0
 40
300.0
  1
X2
  7
テキスト
  0
ENDBLK
  5
5DF
  8
0
  0
BLOCK
  8
0
  2
*U30
 70
     1
 10
0.0
 20
0.0
 30
0.0
  3
*U30
  1

  0
TEXT
  5
5E1
  8
詳細-2
  6
CONTINUOUS
 10
28653.111501527252
 20
17409.802357355431
 30
0.0
 40
300.0
  1
X3
  7
テキスト
  0
ENDBLK
  5
5E3
  8
0
  0
BLOCK
  8
0
  2
*U31
 70
     1
 10
0.0
 20
0.0
 30
0.0
  3
*U31
  1

  0
TEXT
  5
5E5
  8
詳細-2
  6
CONTINUOUS
 10
34036.854380966892
 20
17407.755972635099
 30
0.0
 40
300.0
  1
X4
  7
テキスト
  0
ENDBLK
  5
5E7
  8
0
  0
BLOCK
  8
0
  2
*U32
 70
     1
 10
0.0
 20
0.0
 30
0.0
  3
*U32
  1

  0
TEXT
  5
5E9
  8
詳細-2
  6
CONTINUOUS
 10
39274.693818821077
 20
17410.313953535511
 30
0.0
 40
300.0
  1
X5
  7
テキスト
  0
ENDBLK
  5
5EB
  8
0
  0
BLOCK
  8
0
  2
*U33
 70
     1
 10
0.0
 20
0.0
 30
0.0
  3
*U33
  1

  0
TEXT
  5
5ED
  8
詳細-2
  6
CONTINUOUS
 10
53278.540984134561
 20
14359.57447665984
 30
0.0
 40
300.0
  1
Y1
  7
テキスト
  0
ENDBLK
  5
5EF
  8
0
  0
BLOCK
  8
0
  2
*U34
 70
     1
 10
0.0
 20
0.0
 30
0.0
  3
*U34
  1

  0
TEXT
  5
5F1
  8
詳細-2
  6
CONTINUOUS
 10
53251.119428882201
 20
9643.9410497056615
 30
0.0
 40
300.0
  1
Y2
  7
テキスト
  0
ENDBLK
  5
5F3
  8
0
  0
BLOCK
  8
0
  2
*U35
 70
     1
 10
0.0
 20
0.0
 30
0.0
  3
*U35
  1

  0
TEXT
  5
5F5
  8
詳細-2
  6
CONTINUOUS
 10
53249.584640341949
 20
4570.2205731229897
 30
0.0
 40
300.0
  1
Y3
  7
テキスト
  0
ENDBLK
  5
5F7
  8
0
  0
BLOCK
  8
0
  2
*U36
 70
     1
 10
0.0
 20
0.0
 30
0.0
  3
*U36
  1

  0
TEXT
  5
5F9
  8
詳細-2
  6
CONTINUOUS
 10
54715.576498930568
 20
16079.32478596854
 30
0.0
 40
300.0
  1
X1
  7
テキスト
  0
ENDBLK
  5
5FB
  8
0
  0
BLOCK
  8
0
  2
*U37
 70
     1
 10
0.0
 20
0.0
 30
0.0
  3
*U37
  1

  0
TEXT
  5
5FD
  8
詳細-2
  6
CONTINUOUS
 10
61905.6883134608
 20
16079.32478596854
 30
0.0
 40
300.0
  1
X2
  7
テキスト
  0
ENDBLK
  5
5FF
  8
0
  0
BLOCK
  8
0
  2
*U38
 70
     1
 10
0.0
 20
0.0
 30
0.0
  3
*U38
  1

  0
TEXT
  5
601
  8
詳細-2
  6
CONTINUOUS
 10
65862.248426000733
 20
16081.985086104971
 30
0.0
 40
300.0
  1
X3
  7
テキスト
  0
ENDBLK
  5
603
  8
0
  0
BLOCK
  8
0
  2
*U39
 70
     1
 10
0.0
 20
0.0
 30
0.0
  3
*U39
  1

  0
TEXT
  5
605
  8
詳細-2
  6
CONTINUOUS
 10
71245.991305440402
 20
16079.938701384641
 30
0.0
 40
300.0
  1
X4
  7
テキスト
  0
ENDBLK
  5
607
  8
0
  0
BLOCK
  8
0
  2
*U40
 70
     1
 10
0.0
 20
0.0
 30
0.0
  3
*U40
  1

  0
TEXT
  5
609
  8
詳細-2
  6
CONTINUOUS
 10
76483.830743294573
 20
16082.496682285049
 30
0.0
 40
300.0
  1
X5
  7
テキスト
  0
ENDBLK
  5
60B
  8
0
  0
BLOCK
  8
0
  2
*U41
 70
     1
 10
0.0
 20
0.0
 30
0.0
  3
*U41
  1

  0
TEXT
  5
60D
  8
詳細-2
  6
CONTINUOUS
 10
76483.830743294573
 20
35653.531004599172
 30
0.0
 40
300.0
  1
X5
  7
テキスト
  0
ENDBLK
  5
60F
  8
0
  0
BLOCK
  8
0
  2
*U42
 70
     1
 10
0.0
 20
0.0
 30
0.0
  3
*U42
  1

  0
TEXT
  5
611
  8
詳細-2
  6
CONTINUOUS
 10
71245.991305440402
 20
35650.97302369876
 30
0.0
 40
300.0
  1
X4
  7
テキスト
  0
ENDBLK
  5
613
  8
0
  0
BLOCK
  8
0
  2
*U43
 70
     1
 10
0.0
 20
0.0
 30
0.0
  3
*U43
  1

  0
TEXT
  5
615
  8
詳細-2
  6
CONTINUOUS
 10
65862.248426000733
 20
35653.019408419088
 30
0.0
 40
300.0
  1
X3
  7
テキスト
  0
ENDBLK
  5
617
  8
0
  0
BLOCK
  8
0
  2
*U44
 70
     1
 10
0.0
 20
0.0
 30
0.0
  3
*U44
  1

  0
TEXT
  5
619
  8
詳細-2
  6
CONTINUOUS
 10
61905.6883134608
 20
35650.359108282661
 30
0.0
 40
300.0
  1
X2
  7
テキスト
  0
ENDBLK
  5
61B
  8
0
  0
BLOCK
  8
0
  2
*U45
 70
     1
 10
0.0
 20
0.0
 30
0.0
  3
*U45
  1

  0
TEXT
  5
61D
  8
詳細-2
  6
CONTINUOUS
 10
54715.576498930568
 20
35650.359108282661
 30
0.0
 40
300.0
  1
X1
  7
テキスト
  0
ENDBLK
  5
61F
  8
0
  0
BLOCK
  8
0
  2
*U46
 70
     1
 10
0.0
 20
0.0
 30
0.0
  3
*U46
  1

  0
TEXT
  5
621
  8
詳細-2
  6
CONTINUOUS
 10
53249.584640341949
 20
24141.254895437109
 30
0.0
 40
300.0
  1
Y3
  7
テキスト
  0
ENDBLK
  5
623
  8
0
  0
BLOCK
  8
0
  2
*U47
 70
     1
 10
0.0
 20
0.0
 30
0.0
  3
*U47
  1

  0
TEXT
  5
625
  8
詳細-2
  6
CONTINUOUS
 10
53251.119428882201
 20
29214.97537201978
 30
0.0
 40
300.0
  1
Y2
  7
テキスト
  0
ENDBLK
  5
627
  8
0
  0
BLOCK
  8
0
  2
*U48
 70
     1
 10
0.0
 20
0.0
 30
0.0
  3
*U48
  1

  0
TEXT
  5
629
  8
詳細-2
  6
CONTINUOUS
 10
53278.540984134561
 20
33930.608798973961
 30
0.0
 40
300.0
  1
Y1
  7
テキスト
  0
ENDBLK
  5
62B
  8
0
  0
BLOCK
  8
0
  2
*U49
 70
     1
 10
0.0
 20
0.0
 30
0.0
  3
*U49
  1

  0
TEXT
  5
62D
  8
詳細-2
  6
CONTINUOUS
 10
53326.452998670771
 20
53080.533906350458
 30
0.0
 40
300.0
  1
Y1
  7
テキスト
  0
ENDBLK
  5
62F
  8
0
  0
BLOCK
  8
0
  2
*U50
 70
     1
 10
0.0
 20
0.0
 30
0.0
  3
*U50
  1

  0
TEXT
  5
631
  8
詳細-2
  6
CONTINUOUS
 10
53299.031443418411
 20
48364.900479396267
 30
0.0
 40
300.0
  1
Y2
  7
テキスト
  0
ENDBLK
  5
633
  8
0
  0
BLOCK
  8
0
  2
*U51
 70
     1
 10
0.0
 20
0.0
 30
0.0
  3
*U51
  1

  0
TEXT
  5
635
  8
詳細-2
  6
CONTINUOUS
 10
53297.496654878167
 20
43291.180002813599
 30
0.0
 40
300.0
  1
Y3
  7
テキスト
  0
ENDBLK
  5
637
  8
0
  0
BLOCK
  8
0
  2
*U52
 70
     1
 10
0.0
 20
0.0
 30
0.0
  3
*U52
  1

  0
TEXT
  5
639
  8
詳細-2
  6
CONTINUOUS
 10
54763.488513466793
 20
54800.284215659158
 30
0.0
 40
300.0
  1
X1
  7
テキスト
  0
ENDBLK
  5
63B
  8
0
  0
BLOCK
  8
0
  2
*U53
 70
     1
 10
0.0
 20
0.0
 30
0.0
  3
*U53
  1

  0
TEXT
  5
63D
  8
詳細-2
  6
CONTINUOUS
 10
61953.60032799701
 20
54800.284215659158
 30
0.0
 40
300.0
  1
X2
  7
テキスト
  0
ENDBLK
  5
63F
  8
0
  0
BLOCK
  8
0
  2
*U54
 70
     1
 10
0.0
 20
0.0
 30
0.0
  3
*U54
  1

  0
TEXT
  5
641
  8
詳細-2
  6
CONTINUOUS
 10
65910.160440536958
 20
54802.944515795578
 30
0.0
 40
300.0
  1
X3
  7
テキスト
  0
ENDBLK
  5
643
  8
0
  0
BLOCK
  8
0
  2
*U55
 70
     1
 10
0.0
 20
0.0
 30
0.0
  3
*U55
  1

  0
TEXT
  5
645
  8
詳細-2
  6
CONTINUOUS
 10
71293.903319976613
 20
54800.89813107525
 30
0.0
 40
300.0
  1
X4
  7
テキスト
  0
ENDBLK
  5
647
  8
0
  0
BLOCK
  8
0
  2
*U56
 70
     1
 10
0.0
 20
0.0
 30
0.0
  3
*U56
  1

  0
TEXT
  5
649
  8
詳細-2
  6
CONTINUOUS
 10
76531.742757830783
 20
54803.456111975669
 30
0.0
 40
300.0
  1
X5
  7
テキスト
  0
ENDBLK
  5
64B
  8
0
  0
ENDSEC
  0
SECTION
  2
ENTITIES
  0
INSERT
  5
3EA
  8
詳細
  6
CONTINUOUS
  2
*U5
 10
0.0
 20
0.0
 30
0.0
  0
LINE
  5
3EB
  8
詳細-2
 10
41250.6018161951
 20
33870.668106921243
 30
0.0
 11
16657.510975896141
 21
33870.668106921257
 31
0.0
  0
LINE
  5
3EC
  8
詳細-2
 10
39544.853474684249
 20
35240.418416229957
 30
0.0
 11
39544.853474684249
 21
22919.650943945351
 31
0.0
  0
LINE
  5
3ED
  8
詳細-2
 10
41250.6018161951
 20
29155.034679967051
 30
0.0
 11
16657.510975896141
 21
29155.03467996707
 31
0.0
  0
LINE
  5
3EE
  8
詳細-2
 10
17744.853448400208
 20
35240.418416229957
 30
0.0
 11
17744.853448400201
 21
22919.650943945351
 31
0.0
  0
LINE
  5
3EF
  8
詳細-2
 10
24944.853457081121
 20
35240.418416229957
 30
0.0
 11
24944.853457081121
 21
22919.650943945351
 31
0.0
  0
LINE
  5
3F0
  8
詳細-2
 10
28944.853461903909
 20
35240.418416229957
 30
0.0
 11
28944.853461903909
 21
22919.650943945351
 31
0.0
  0
LINE
  5
3F1
  8
詳細-2
 10
34344.85346841476
 20
35240.418416229957
 30
0.0
 11
34344.85346841476
 21
22919.650943945351
 31
0.0
  0
LINE
  5
3F2
  8
詳細-2
 10
41250.6018161951
 20
24078.65390324797
 30
0.0
 11
16657.510975896141
 21
24078.653903247981
 31
0.0
  0
LINE
  5
40F
  8
詳細-2
 10
41250.6018161951
 20
43439.13361809327
 30
0.0
 11
16657.510975896141
 21
43439.133618093292
 31
0.0
  0
LINE
  5
410
  8
詳細-2
 10
34344.85346841476
 20
54600.898131075272
 30
0.0
 11
34344.85346841476
 21
42280.130658790658
 31
0.0
  0
LINE
  5
411
  8
詳細-2
 10
28944.853461903909
 20
54600.898131075272
 30
0.0
 11
28944.853461903909
 21
42280.130658790658
 31
0.0
  0
LINE
  5
412
  8
詳細-2
 10
24944.853457081121
 20
54600.898131075272
 30
0.0
 11
24944.853457081121
 21
42280.130658790658
 31
0.0
  0
LINE
  5
413
  8
詳細-2
 10
17744.853448400201
 20
54600.898131075272
 30
0.0
 11
17744.853448400201
 21
42280.130658790658
 31
0.0
  0
LINE
  5
415
  8
詳細-2
 10
39544.853474684249
 20
54600.898131075272
 30
0.0
 11
39544.853474684249
 21
42280.130658790658
 31
0.0
  0
LINE
  5
416
  8
詳細-2
 10
41250.6018161951
 20
53231.147821766557
 30
0.0
 11
16657.51097589613
 21
53231.147821766572
 31
0.0
  0
LINE
  5
441
  8
ZUWAKU
  6
CONTINUOUS
 62
   150
 10
89937.634517756363
 20
1500.0
 30
0.0
 11
89937.634517756363
 21
57899.999999999978
 31
0.0
  0
LINE
  5
442
  8
ZUWAKU
  6
CONTINUOUS
 62
   150
 10
9437.6345177563344
 20
1500.0
 30
0.0
 11
9437.6345177563344
 21
57900.0
 31
0.0
  0
LINE
  5
443
  8
ZUWAKU
  6
CONTINUOUS
 62
   150
 10
9437.6345177563344
 20
1500.0
 30
0.0
 11
89937.634517756363
 21
1500.0
 31
0.0
  0
LINE
  5
444
  8
ZUWAKU
  6
CONTINUOUS
 62
   150
 10
9437.6345177563344
 20
57899.999999999993
 30
0.0
 11
89937.634517756363
 21
57899.999999999993
 31
0.0
  0
LINE
  5
445
  8
ZUWAKU
 62
   131
 10
7637.6345177563353
 20
59399.999999999964
 30
0.0
 11
91737.634517756363
 21
59399.999999999971
 31
0.0
  0
LINE
  5
446
  8
ZUWAKU
 62
   131
 10
91737.634517756363
 20
-0.0000000000218279
 30
0.0
 11
91737.634517756363
 21
59399.999999999971
 31
0.0
  0
LINE
  5
447
  8
ZUWAKU
 62
   131
 10
7637.6345177563353
 20
0.0
 30
0.0
 11
7637.6345177563353
 21
59399.999999999964
 31
0.0
  0
LINE
  5
448
  8
ZUWAKU
 62
   131
 10
7637.6345177563353
 20
0.0
 30
0.0
 11
91737.634517756334
 21
0.0
 31
0.0
  0
INSERT
  5
462
  8
詳細
  6
CONTINUOUS
  2
*U6
 10
0.0
 20
0.0
 30
0.0
  0
INSERT
  5
464
  8
詳細
  6
CONTINUOUS
  2
*U7
 10
0.0
 20
0.0
 30
0.0
  0
INSERT
  5
465
  8
詳細
  6
CONTINUOUS
  2
*U8
 10
0.0
 20
0.0
 30
0.0
  0
CIRCLE
  5
46B
  8
詳細
  6
CONTINUOUS
 10
17744.853448400201
 20
54950.898131075272
 30
0.0
 40
350.0
  0
CIRCLE
  5
46D
  8
詳細
  6
CONTINUOUS
 10
24944.853457081121
 20
54950.898131075272
 30
0.0
 40
350.0
  0
CIRCLE
  5
46E
  8
詳細
  6
CONTINUOUS
 10
28944.853461903909
 20
54950.898131075272
 30
0.0
 40
350.0
  0
CIRCLE
  5
470
  8
詳細
  6
CONTINUOUS
 10
34344.85346841476
 20
54950.898131075272
 30
0.0
 40
350.0
  0
CIRCLE
  5
472
  8
詳細
  6
CONTINUOUS
 10
39544.853474684249
 20
54950.898131075272
 30
0.0
 40
350.0
  0
INSERT
  5
473
  8
詳細
  6
CONTINUOUS
  2
*U9
 10
0.0
 20
0.0
 30
0.0
  0
INSERT
  5
476
  8
詳細
  6
CONTINUOUS
  2
*U10
 10
0.0
 20
0.0
 30
0.0
  0
INSERT
  5
477
  8
詳細
  6
CONTINUOUS
  2
*U11
 10
0.0
 20
0.0
 30
0.0
  0
INSERT
  5
478
  8
詳細
  6
CONTINUOUS
  2
*U12
 10
0.0
 20
0.0
 30
0.0
  0
INSERT
  5
479
  8
詳細
  6
CONTINUOUS
  2
*U13
 10
0.0
 20
0.0
 30
0.0
  0
INSERT
  5
47A
  8
詳細
  6
CONTINUOUS
  2
*U14
 10
0.0
 20
0.0
 30
0.0
  0
CIRCLE
  5
47B
  8
詳細
  6
CONTINUOUS
 10
16307.51097589613
 20
53231.147821766572
 30
0.0
 40
350.0
  0
CIRCLE
  5
47E
  8
詳細
  6
CONTINUOUS
 10
16307.51097589615
 20
48515.51439481238
 30
0.0
 40
350.0
  0
INSERT
  5
47F
  8
詳細
  6
CONTINUOUS
  2
*U15
 10
0.0
 20
0.0
 30
0.0
  0
LINE
  5
480
  8
詳細-2
 10
41250.601816195129
 20
48515.514394812373
 30
0.0
 11
16657.510975896141
 21
48515.51439481238
 31
0.0
  0
INSERT
  5
481
  8
詳細
  6
CONTINUOUS
  2
*U16
 10
0.0
 20
0.0
 30
0.0
  0
CIRCLE
  5
482
  8
詳細
  6
CONTINUOUS
 10
16307.51097589615
 20
43439.133618093292
 30
0.0
 40
350.0
  0
INSERT
  5
484
  8
詳細
  6
CONTINUOUS
  2
*U17
 10
0.0
 20
0.0
 30
0.0
  0
INSERT
  5
485
  8
詳細
  6
CONTINUOUS
  2
*U18
 10
0.0
 20
0.0
 30
0.0
  0
INSERT
  5
486
  8
詳細
  6
CONTINUOUS
  2
*U19
 10
0.0
 20
0.0
 30
0.0
  0
INSERT
  5
487
  8
詳細
  6
CONTINUOUS
  2
*U20
 10
0.0
 20
0.0
 30
0.0
  0
INSERT
  5
488
  8
詳細
  6
CONTINUOUS
  2
*U21
 10
0.0
 20
0.0
 30
0.0
  0
CIRCLE
  5
489
  8
詳細
  6
CONTINUOUS
 10
39544.853474684249
 20
35590.418416229957
 30
0.0
 40
350.0
  0
CIRCLE
  5
48A
  8
詳細
  6
CONTINUOUS
 10
34344.85346841476
 20
35590.418416229957
 30
0.0
 40
350.0
  0
CIRCLE
  5
48B
  8
詳細
  6
CONTINUOUS
 10
28944.853461903909
 20
35590.418416229957
 30
0.0
 40
350.0
  0
CIRCLE
  5
48C
  8
詳細
  6
CONTINUOUS
 10
24944.853457081121
 20
35590.418416229957
 30
0.0
 40
350.0
  0
CIRCLE
  5
48D
  8
詳細
  6
CONTINUOUS
 10
17744.853448400201
 20
35590.418416229957
 30
0.0
 40
350.0
  0
CIRCLE
  5
48E
  8
詳細
  6
CONTINUOUS
 10
16307.51097589615
 20
24078.653903247981
 30
0.0
 40
350.0
  0
INSERT
  5
48F
  8
詳細
  6
CONTINUOUS
  2
*U22
 10
0.0
 20
0.0
 30
0.0
  0
INSERT
  5
490
  8
詳細
  6
CONTINUOUS
  2
*U23
 10
0.0
 20
0.0
 30
0.0
  0
CIRCLE
  5
491
  8
詳細
  6
CONTINUOUS
 10
16307.51097589615
 20
29155.03467996707
 30
0.0
 40
350.0
  0
CIRCLE
  5
492
  8
詳細
  6
CONTINUOUS
 10
16307.51097589613
 20
33870.668106921257
 30
0.0
 40
350.0
  0
INSERT
  5
493
  8
詳細
  6
CONTINUOUS
  2
*U24
 10
0.0
 20
0.0
 30
0.0
  0
INSERT
  5
498
  8
詳細
  6
CONTINUOUS
  2
*U25
 10
0.0
 20
0.0
 30
0.0
  0
CIRCLE
  5
499
  8
詳細
  6
CONTINUOUS
 10
16307.51097589613
 20
15838.005663326399
 30
0.0
 40
350.0
  0
CIRCLE
  5
49A
  8
詳細
  6
CONTINUOUS
 10
16307.51097589615
 20
11122.372236372221
 30
0.0
 40
350.0
  0
INSERT
  5
49B
  8
詳細
  6
CONTINUOUS
  2
*U26
 10
0.0
 20
0.0
 30
0.0
  0
INSERT
  5
49C
  8
詳細
  6
CONTINUOUS
  2
*U27
 10
0.0
 20
0.0
 30
0.0
  0
CIRCLE
  5
49D
  8
詳細
  6
CONTINUOUS
 10
16307.51097589615
 20
6045.9914596531225
 30
0.0
 40
350.0
  0
CIRCLE
  5
49E
  8
詳細
  6
CONTINUOUS
 10
17744.853448400201
 20
17557.755972635099
 30
0.0
 40
350.0
  0
CIRCLE
  5
49F
  8
詳細
  6
CONTINUOUS
 10
24944.853457081121
 20
17557.755972635099
 30
0.0
 40
350.0
  0
CIRCLE
  5
4A0
  8
詳細
  6
CONTINUOUS
 10
28944.853461903909
 20
17557.755972635099
 30
0.0
 40
350.0
  0
CIRCLE
  5
4A1
  8
詳細
  6
CONTINUOUS
 10
34344.85346841476
 20
17557.755972635099
 30
0.0
 40
350.0
  0
CIRCLE
  5
4A2
  8
詳細
  6
CONTINUOUS
 10
39544.853474684249
 20
17557.755972635099
 30
0.0
 40
350.0
  0
INSERT
  5
4A3
  8
詳細
  6
CONTINUOUS
  2
*U28
 10
0.0
 20
0.0
 30
0.0
  0
INSERT
  5
4A4
  8
詳細
  6
CONTINUOUS
  2
*U29
 10
0.0
 20
0.0
 30
0.0
  0
INSERT
  5
4A5
  8
詳細
  6
CONTINUOUS
  2
*U30
 10
0.0
 20
0.0
 30
0.0
  0
INSERT
  5
4A6
  8
詳細
  6
CONTINUOUS
  2
*U31
 10
0.0
 20
0.0
 30
0.0
  0
INSERT
  5
4A7
  8
詳細
  6
CONTINUOUS
  2
*U32
 10
0.0
 20
0.0
 30
0.0
  0
LINE
  5
4A8
  8
詳細-2
 10
41250.6018161951
 20
6045.9914596531089
 30
0.0
 11
16657.510975896141
 21
6045.9914596531225
 31
0.0
  0
LINE
  5
4A9
  8
詳細-2
 10
34344.85346841476
 20
17207.755972635099
 30
0.0
 11
34344.85346841476
 21
4886.9885003504969
 31
0.0
  0
LINE
  5
4AA
  8
詳細-2
 10
28944.853461903909
 20
17207.755972635099
 30
0.0
 11
28944.853461903909
 21
4886.9885003504969
 31
0.0
  0
LINE
  5
4AB
  8
詳細-2
 10
24944.853457081121
 20
17207.755972635099
 30
0.0
 11
24944.853457081121
 21
4886.9885003504969
 31
0.0
  0
LINE
  5
4AC
  8
詳細-2
 10
17744.853448400208
 20
17207.755972635099
 30
0.0
 11
17744.853448400201
 21
4886.9885003504969
 31
0.0
  0
LINE
  5
4AD
  8
詳細-2
 10
41250.6018161951
 20
11122.37223637219
 30
0.0
 11
16657.510975896141
 21
11122.37223637221
 31
0.0
  0
LINE
  5
4AE
  8
詳細-2
 10
39544.853474684249
 20
17207.755972635099
 30
0.0
 11
39544.853474684249
 21
4886.9885003504969
 31
0.0
  0
LINE
  5
4AF
  8
詳細-2
 10
41250.6018161951
 20
15838.00566332639
 30
0.0
 11
16657.510975896141
 21
15838.005663326399
 31
0.0
  0
INSERT
  5
4C8
  8
詳細
  6
CONTINUOUS
  2
*U33
 10
0.0
 20
0.0
 30
0.0
  0
CIRCLE
  5
4C9
  8
詳細
  6
CONTINUOUS
 10
53516.647900369608
 20
14510.188392075939
 30
0.0
 40
350.0
  0
CIRCLE
  5
4CA
  8
詳細
  6
CONTINUOUS
 10
53516.647900369637
 20
9794.5549651217607
 30
0.0
 40
350.0
  0
INSERT
  5
4CB
  8
詳細
  6
CONTINUOUS
  2
*U34
 10
0.0
 20
0.0
 30
0.0
  0
INSERT
  5
4CC
  8
詳細
  6
CONTINUOUS
  2
*U35
 10
0.0
 20
0.0
 30
0.0
  0
CIRCLE
  5
4CD
  8
詳細
  6
CONTINUOUS
 10
53516.647900369637
 20
4718.1741884026633
 30
0.0
 40
350.0
  0
CIRCLE
  5
4CE
  8
詳細
  6
CONTINUOUS
 10
54953.990372873683
 20
16229.938701384641
 30
0.0
 40
350.0
  0
CIRCLE
  5
4CF
  8
詳細
  6
CONTINUOUS
 10
62153.990381554591
 20
16229.938701384641
 30
0.0
 40
350.0
  0
CIRCLE
  5
4D0
  8
詳細
  6
CONTINUOUS
 10
66153.990386377394
 20
16229.938701384641
 30
0.0
 40
350.0
  0
CIRCLE
  5
4D1
  8
詳細
  6
CONTINUOUS
 10
71553.99039288827
 20
16229.938701384641
 30
0.0
 40
350.0
  0
CIRCLE
  5
4D2
  8
詳細
  6
CONTINUOUS
 10
76753.990399157759
 20
16229.938701384641
 30
0.0
 40
350.0
  0
INSERT
  5
4D3
  8
詳細
  6
CONTINUOUS
  2
*U36
 10
0.0
 20
0.0
 30
0.0
  0
INSERT
  5
4D4
  8
詳細
  6
CONTINUOUS
  2
*U37
 10
0.0
 20
0.0
 30
0.0
  0
INSERT
  5
4D5
  8
詳細
  6
CONTINUOUS
  2
*U38
 10
0.0
 20
0.0
 30
0.0
  0
INSERT
  5
4D6
  8
詳細
  6
CONTINUOUS
  2
*U39
 10
0.0
 20
0.0
 30
0.0
  0
INSERT
  5
4D7
  8
詳細
  6
CONTINUOUS
  2
*U40
 10
0.0
 20
0.0
 30
0.0
  0
LINE
  5
4D8
  8
詳細-2
 10
78459.738740668588
 20
4718.1741884026478
 30
0.0
 11
53866.647900369637
 21
4718.1741884026633
 31
0.0
  0
LINE
  5
4D9
  8
詳細-2
 10
71553.99039288827
 20
15879.938701384641
 30
0.0
 11
71553.99039288827
 21
3559.1712291000372
 31
0.0
  0
LINE
  5
4DA
  8
詳細-2
 10
66153.990386377394
 20
15879.938701384641
 30
0.0
 11
66153.990386377394
 21
3559.1712291000372
 31
0.0
  0
LINE
  5
4DB
  8
詳細-2
 10
62153.990381554591
 20
15879.938701384641
 30
0.0
 11
62153.990381554591
 21
3559.1712291000372
 31
0.0
  0
LINE
  5
4DC
  8
詳細-2
 10
54953.990372873712
 20
15879.938701384641
 30
0.0
 11
54953.990372873683
 21
3559.1712291000372
 31
0.0
  0
LINE
  5
4DD
  8
詳細-2
 10
78459.738740668588
 20
9794.5549651217389
 30
0.0
 11
53866.647900369637
 21
9794.5549651217516
 31
0.0
  0
LINE
  5
4DE
  8
詳細-2
 10
76753.990399157759
 20
15879.938701384641
 30
0.0
 11
76753.990399157759
 21
3559.1712291000372
 31
0.0
  0
LINE
  5
4DF
  8
詳細-2
 10
78459.738740668588
 20
14510.18839207593
 30
0.0
 11
53866.647900369637
 21
14510.188392075939
 31
0.0
  0
LINE
  5
4E0
  8
詳細-2
 10
78459.738740668588
 20
34081.222714390053
 30
0.0
 11
53866.647900369637
 21
34081.22271439006
 31
0.0
  0
LINE
  5
4E1
  8
詳細-2
 10
76753.990399157759
 20
35450.97302369876
 30
0.0
 11
76753.990399157759
 21
23130.20555141415
 31
0.0
  0
LINE
  5
4E2
  8
詳細-2
 10
78459.738740668588
 20
29365.589287435851
 30
0.0
 11
53866.647900369637
 21
29365.589287435869
 31
0.0
  0
LINE
  5
4E3
  8
詳細-2
 10
54953.990372873712
 20
35450.97302369876
 30
0.0
 11
54953.990372873683
 21
23130.20555141415
 31
0.0
  0
LINE
  5
4E4
  8
詳細-2
 10
62153.990381554591
 20
35450.97302369876
 30
0.0
 11
62153.990381554591
 21
23130.20555141415
 31
0.0
  0
LINE
  5
4E5
  8
詳細-2
 10
66153.990386377394
 20
35450.97302369876
 30
0.0
 11
66153.990386377394
 21
23130.20555141415
 31
0.0
  0
LINE
  5
4E6
  8
詳細-2
 10
71553.99039288827
 20
35450.97302369876
 30
0.0
 11
71553.99039288827
 21
23130.20555141415
 31
0.0
  0
LINE
  5
4E7
  8
詳細-2
 10
78459.738740668588
 20
24289.20851071677
 30
0.0
 11
53866.647900369637
 21
24289.20851071678
 31
0.0
  0
INSERT
  5
4E8
  8
詳細
  6
CONTINUOUS
  2
*U41
 10
0.0
 20
0.0
 30
0.0
  0
INSERT
  5
4E9
  8
詳細
  6
CONTINUOUS
  2
*U42
 10
0.0
 20
0.0
 30
0.0
  0
INSERT
  5
4EA
  8
詳細
  6
CONTINUOUS
  2
*U43
 10
0.0
 20
0.0
 30
0.0
  0
INSERT
  5
4EB
  8
詳細
  6
CONTINUOUS
  2
*U44
 10
0.0
 20
0.0
 30
0.0
  0
INSERT
  5
4EC
  8
詳細
  6
CONTINUOUS
  2
*U45
 10
0.0
 20
0.0
 30
0.0
  0
CIRCLE
  5
4ED
  8
詳細
  6
CONTINUOUS
 10
76753.990399157759
 20
35800.97302369876
 30
0.0
 40
350.0
  0
CIRCLE
  5
4EE
  8
詳細
  6
CONTINUOUS
 10
71553.99039288827
 20
35800.97302369876
 30
0.0
 40
350.0
  0
CIRCLE
  5
4EF
  8
詳細
  6
CONTINUOUS
 10
66153.990386377394
 20
35800.97302369876
 30
0.0
 40
350.0
  0
CIRCLE
  5
4F0
  8
詳細
  6
CONTINUOUS
 10
62153.990381554591
 20
35800.97302369876
 30
0.0
 40
350.0
  0
CIRCLE
  5
4F1
  8
詳細
  6
CONTINUOUS
 10
54953.990372873683
 20
35800.97302369876
 30
0.0
 40
350.0
  0
CIRCLE
  5
4F2
  8
詳細
  6
CONTINUOUS
 10
53516.647900369637
 20
24289.20851071678
 30
0.0
 40
350.0
  0
INSERT
  5
4F3
  8
詳細
  6
CONTINUOUS
  2
*U46
 10
0.0
 20
0.0
 30
0.0
  0
INSERT
  5
4F4
  8
詳細
  6
CONTINUOUS
  2
*U47
 10
0.0
 20
0.0
 30
0.0
  0
CIRCLE
  5
4F5
  8
詳細
  6
CONTINUOUS
 10
53516.647900369637
 20
29365.58928743588
 30
0.0
 40
350.0
  0
CIRCLE
  5
4F6
  8
詳細
  6
CONTINUOUS
 10
53516.647900369608
 20
34081.22271439006
 30
0.0
 40
350.0
  0
INSERT
  5
4F7
  8
詳細
  6
CONTINUOUS
  2
*U48
 10
0.0
 20
0.0
 30
0.0
  0
INSERT
  5
50D
  8
詳細
  6
CONTINUOUS
  2
*U49
 10
0.0
 20
0.0
 30
0.0
  0
CIRCLE
  5
50E
  8
詳細
  6
CONTINUOUS
 10
53564.559914905818
 20
53231.147821766557
 30
0.0
 40
350.0
  0
CIRCLE
  5
50F
  8
詳細
  6
CONTINUOUS
 10
53564.559914905862
 20
48515.514394812373
 30
0.0
 40
350.0
  0
INSERT
  5
510
  8
詳細
  6
CONTINUOUS
  2
*U50
 10
0.0
 20
0.0
 30
0.0
  0
INSERT
  5
511
  8
詳細
  6
CONTINUOUS
  2
*U51
 10
0.0
 20
0.0
 30
0.0
  0
CIRCLE
  5
512
  8
詳細
  6
CONTINUOUS
 10
53564.559914905862
 20
43439.13361809327
 30
0.0
 40
350.0
  0
CIRCLE
  5
513
  8
詳細
  6
CONTINUOUS
 10
55001.902387409893
 20
54950.898131075257
 30
0.0
 40
350.0
  0
CIRCLE
  5
514
  8
詳細
  6
CONTINUOUS
 10
62201.902396090809
 20
54950.898131075257
 30
0.0
 40
350.0
  0
CIRCLE
  5
515
  8
詳細
  6
CONTINUOUS
 10
66201.902400913605
 20
54950.898131075257
 30
0.0
 40
350.0
  0
CIRCLE
  5
516
  8
詳細
  6
CONTINUOUS
 10
71601.902407424481
 20
54950.898131075257
 30
0.0
 40
350.0
  0
CIRCLE
  5
517
  8
詳細
  6
CONTINUOUS
 10
76801.902413693955
 20
54950.898131075257
 30
0.0
 40
350.0
  0
INSERT
  5
518
  8
詳細
  6
CONTINUOUS
  2
*U52
 10
0.0
 20
0.0
 30
0.0
  0
INSERT
  5
519
  8
詳細
  6
CONTINUOUS
  2
*U53
 10
0.0
 20
0.0
 30
0.0
  0
INSERT
  5
51A
  8
詳細
  6
CONTINUOUS
  2
*U54
 10
0.0
 20
0.0
 30
0.0
  0
INSERT
  5
51B
  8
詳細
  6
CONTINUOUS
  2
*U55
 10
0.0
 20
0.0
 30
0.0
  0
INSERT
  5
51C
  8
詳細
  6
CONTINUOUS
  2
*U56
 10
0.0
 20
0.0
 30
0.0
  0
LINE
  5
51D
  8
詳細-2
 10
78507.650755204799
 20
43439.133618093263
 30
0.0
 11
53914.559914905847
 21
43439.13361809327
 31
0.0
  0
LINE
  5
51E
  8
詳細-2
 10
71601.902407424481
 20
54600.898131075257
 30
0.0
 11
71601.902407424481
 21
42280.130658790651
 31
0.0
  0
LINE
  5
51F
  8
詳細-2
 10
66201.902400913605
 20
54600.898131075257
 30
0.0
 11
66201.902400913605
 21
42280.130658790651
 31
0.0
  0
LINE
  5
520
  8
詳細-2
 10
62201.902396090809
 20
54600.898131075257
 30
0.0
 11
62201.902396090809
 21
42280.130658790651
 31
0.0
  0
LINE
  5
521
  8
詳細-2
 10
55001.902387409922
 20
54600.898131075257
 30
0.0
 11
55001.902387409893
 21
42280.130658790651
 31
0.0
  0
LINE
  5
522
  8
詳細-2
 10
78507.650755204799
 20
48515.514394812351
 30
0.0
 11
53914.559914905847
 21
48515.514394812359
 31
0.0
  0
LINE
  5
523
  8
詳細-2
 10
76801.902413693955
 20
54600.898131075257
 30
0.0
 11
76801.902413693955
 21
42280.130658790651
 31
0.0
  0
LINE
  5
524
  8
詳細-2
 10
78507.650755204799
 20
53231.147821766543
 30
0.0
 11
53914.559914905847
 21
53231.147821766557
 31
0.0
  0
VIEWPORT
  5
B9
 67
     1
  8
0
 10
5.6154163991372421
 20
3.9020832317081959
 30
0.0
 40
13.76134929892339
 41
8.3349859997656317
 68
     1
 69
     1
1001
ACAD
1000
MVIEW
1002
{
1070
    16
1010
0.0
1020
0.0
1030
0.0
1010
0.0
1020
0.0
1030
1.0
1040
0.0
1040
8.3349859997656317
1040
5.6154163991372421
1040
3.9020832317081959
1040
50.0
1040
0.0
1040
0.0
1070
     0
1070
  1000
1070
     1
1070
     1
1070
     0
1070
     0
1070
     0
1070
     0
1040
0.0
1040
0.0
1040
0.0
1040
10.0
1040
10.0
1040
10.0
1040
10.0
1070
     0
1002
{
1002
}
1002
}
  0
ENDSEC
  0
EOF
