  0
SECTION
  2
HEADER
  9
$ACADVER
  1
AC1009
  9
$INSBASE
 10
0.0
 20
0.0
 30
0.0
  9
$EXTMIN
 10
-128.35131778125651
 20
-62471.553432652603
 30
0.0
  9
$EXTMAX
 10
187414.28111989141
 20
70176.259715464475
 30
0.0
  9
$LIMMIN
 10
0.0
 20
0.0
  9
$LIMMAX
 10
12.0
 20
9.0
  9
$ORTHOMODE
 70
     0
  9
$REGENMODE
 70
     1
  9
$FILLMODE
 70
     1
  9
$QTEXTMODE
 70
     0
  9
$MIRRTEXT
 70
     0
  9
$DRAGMODE
 70
     2
  9
$LTSCALE
 40
800.0
  9
$OSMODE
 70
    45
  9
$ATTMODE
 70
     1
  9
$TEXTSIZE
 40
400.0
  9
$TRACEWID
 40
0.05
  9
$TEXTSTYLE
  7
寸法
  9
$CLAYER
  8
ZUWAKU
  9
$CELTYPE
  6
CONTINUOUS
  9
$CECOLOR
 62
   256
  9
$DIMSCALE
 40
100.0
  9
$DIMASZ
 40
3.0
  9
$DIMEXO
 40
3.0
  9
$DIMDLI
 40
10.0
  9
$DIMRND
 40
0.0
  9
$DIMDLE
 40
0.0
  9
$DIMEXE
 40
1.0
  9
$DIMTP
 40
0.0
  9
$DIMTM
 40
0.0
  9
$DIMTXT
 40
4.0
  9
$DIMCEN
 40
0.09
  9
$DIMTSZ
 40
0.0
  9
$DIMTOL
 70
     0
  9
$DIMLIM
 70
     0
  9
$DIMTIH
 70
     0
  9
$DIMTOH
 70
     0
  9
$DIMSE1
 70
     0
  9
$DIMSE2
 70
     0
  9
$DIMTAD
 70
     1
  9
$DIMZIN
 70
     0
  9
$DIMBLK
  1
OPEN30
  9
$DIMASO
 70
     1
  9
$DIMSHO
 70
     1
  9
$DIMPOST
  1

  9
$DIMAPOST
  1

  9
$DIMALT
 70
     0
  9
$DIMALTD
 70
     2
  9
$DIMALTF
 40
25.399999999999999
  9
$DIMLFAC
 40
1.0
  9
$DIMTOFL
 70
     0
  9
$DIMTVP
 40
0.0
  9
$DIMTIX
 70
     0
  9
$DIMSOXD
 70
     0
  9
$DIMSAH
 70
     0
  9
$DIMBLK1
  1

  9
$DIMBLK2
  1

  9
$DIMSTYLE
  2
30_矢印角度記入
  9
$DIMCLRD
 70
     0
  9
$DIMCLRE
 70
     0
  9
$DIMCLRT
 70
     0
  9
$DIMTFAC
 40
1.0
  9
$DIMGAP
 40
2.0
  9
$LUNITS
 70
     2
  9
$LUPREC
 70
     4
  9
$SKETCHINC
 40
0.1
  9
$FILLETRAD
 40
0.0
  9
$AUNITS
 70
     0
  9
$AUPREC
 70
     0
  9
$MENU
  1
.
  9
$ELEVATION
 40
0.0
  9
$PELEVATION
 40
0.0
  9
$THICKNESS
 40
0.0
  9
$LIMCHECK
 70
     0
  9
$BLIPMODE
 70
     0
  9
$CHAMFERA
 40
0.0
  9
$CHAMFERB
 40
0.0
  9
$SKPOLY
 70
     0
  9
$TDCREATE
 40
2455007.3016793169
  9
$TDUPDATE
 40
2455056.628125174
  9
$TDINDWG
 40
0.4510769329
  9
$TDUSRTIMER
 40
0.4510769329
  9
$USRTIMER
 70
     1
  9
$ANGBASE
 50
0.0
  9
$ANGDIR
 70
     0
  9
$PDMODE
 70
    35
  9
$PDSIZE
 40
0.0
  9
$PLINEWID
 40
0.0
  9
$COORDS
 70
     1
  9
$SPLFRAME
 70
     0
  9
$SPLINETYPE
 70
     6
  9
$SPLINESEGS
 70
     8
  9
$ATTDIA
 70
     0
  9
$ATTREQ
 70
     1
  9
$HANDLING
 70
     1
  9
$HANDSEED
  5
22B1
  9
$SURFTAB1
 70
     6
  9
$SURFTAB2
 70
     6
  9
$SURFTYPE
 70
     6
  9
$SURFU
 70
     6
  9
$SURFV
 70
     6
  9
$UCSNAME
  2

  9
$UCSORG
 10
0.0
 20
0.0
 30
0.0
  9
$UCSXDIR
 10
1.0
 20
0.0
 30
0.0
  9
$UCSYDIR
 10
0.0
 20
1.0
 30
0.0
  9
$PUCSNAME
  2

  9
$PUCSORG
 10
0.0
 20
0.0
 30
0.0
  9
$PUCSXDIR
 10
1.0
 20
0.0
 30
0.0
  9
$PUCSYDIR
 10
0.0
 20
1.0
 30
0.0
  9
$USERI1
 70
     0
  9
$USERI2
 70
     0
  9
$USERI3
 70
     0
  9
$USERI4
 70
     0
  9
$USERI5
 70
     0
  9
$USERR1
 40
0.0
  9
$USERR2
 40
0.0
  9
$USERR3
 40
0.0
  9
$USERR4
 40
0.0
  9
$USERR5
 40
0.0
  9
$WORLDVIEW
 70
     1
  9
$SHADEDGE
 70
     3
  9
$SHADEDIF
 70
    70
  9
$TILEMODE
 70
     1
  9
$MAXACTVP
 70
    64
  9
$PLIMCHECK
 70
     0
  9
$PEXTMIN
 10
1.0000000000000000E+020
 20
1.0000000000000000E+020
 30
1.0000000000000000E+020
  9
$PEXTMAX
 10
-1.0000000000000000E+020
 20
-1.0000000000000000E+020
 30
-1.0000000000000000E+020
  9
$PLIMMIN
 10
-4.995333194732666
 20
-16.933305740356442
  9
$PLIMMAX
 10
835.91396856307995
 20
576.9186840057373
  9
$UNITMODE
 70
     0
  9
$VISRETAIN
 70
     1
  9
$PLINEGEN
 70
     0
  9
$PSLTSCALE
 70
     1
  0
ENDSEC
  0
SECTION
  2
TABLES
  0
TABLE
  2
VPORT
 70
     2
  0
VPORT
  2
*ACTIVE
 70
     0
 10
0.0
 20
0.0
 11
1.0
 21
1.0
 12
90592.623102105354
 22
5098.3850596061311
 13
0.0
 23
0.0
 14
0.5
 24
0.5
 15
0.5
 25
0.5
 16
0.0
 26
0.0
 36
1.0
 17
0.0
 27
0.0
 37
0.0
 40
136287.651750155
 41
1.717696629213483
 42
50.0
 43
0.0
 44
0.0
 50
0.0
 51
0.0
 71
     0
 72
  1000
 73
     1
 74
     2
 75
     0
 76
     0
 77
     0
 78
     0
  0
ENDTAB
  0
TABLE
  2
LTYPE
 70
    11
  0
LTYPE
  2
CONTINUOUS
 70
     0
  3
Solid line
 72
    65
 73
     0
 40
0.0
  0
LTYPE
  2
ACAD_ISO03W100
 70
     0
  3
ISO dash space __    __    __    __    __    __
 72
    65
 73
     2
 40
30.0
 49
12.0
 49
-18.0
  0
LTYPE
  2
ACAD_ISO02W100
 70
     0
  3
ISO dash __ __ __ __ __ __ __ __ __ __ __ __ __
 72
    65
 73
     2
 40
15.0
 49
12.0
 49
-3.0
  0
LTYPE
  2
ACAD_ISO05W100
 70
     0
  3
ISO long-dash double-dot ____ .. ____ .. ____ .
 72
    65
 73
     6
 40
33.0
 49
24.0
 49
-3.0
 49
0.0
 49
-3.0
 49
0.0
 49
-3.0
  0
LTYPE
  2
ACAD_ISO07W100
 70
     0
  3
ISO dot . . . . . . . . . . . . . . . . . . . .
 72
    65
 73
     2
 40
3.0
 49
0.0
 49
-3.0
  0
LTYPE
  2
CENTER
 70
     0
  3
Center ____ _ ____ _ ____ _ ____ _ ____ _ ____
 72
    65
 73
     4
 40
2.0
 49
1.25
 49
-0.25
 49
0.25
 49
-0.25
  0
LTYPE
  2
CENTER2
 70
     0
  3
Center (.5x) ___ _ ___ _ ___ _ ___ _ ___ _ ___
 72
    65
 73
     4
 40
1.125
 49
0.75
 49
-0.125
 49
0.125
 49
-0.125
  0
LTYPE
  2
DASHDOT
 70
     0
  3
Dash dot __ . __ . __ . __ . __ . __ . __ . __
 72
    65
 73
     4
 40
1.0
 49
0.5
 49
-0.25
 49
0.0
 49
-0.25
  0
LTYPE
  2
DASHED2
 70
     0
  3
Dashed (.5x) _ _ _ _ _ _ _ _ _ _ _ _ _ _ _ _ _
 72
    65
 73
     2
 40
0.375
 49
0.25
 49
-0.125
  0
LTYPE
  2
DASHEDX2
 70
     0
  3
Dashed (2x) ____  ____  ____  ____  ____  ___
 72
    65
 73
     2
 40
1.5
 49
1.0
 49
-0.5
  0
LTYPE
  2
HIDDEN
 70
     0
  3
Hidden __ __ __ __ __ __ __ __ __ __ __ __ __ _
 72
    65
 73
     2
 40
0.375
 49
0.25
 49
-0.125
  0
ENDTAB
  0
TABLE
  2
LAYER
 70
     7
  0
LAYER
  2
0
 70
     0
 62
     7
  6
CONTINUOUS
  0
LAYER
  2
ZUWAKU
 70
     0
 62
     7
  6
HIDDEN
  0
LAYER
  2
MADOWAKU
 70
     0
 62
     4
  6
CONTINUOUS
  0
LAYER
  2
CENTER
 70
     0
 62
     3
  6
CONTINUOUS
  0
LAYER
  2
寸法
 70
     0
 62
     7
  6
CONTINUOUS
  0
LAYER
  2
詳細
 70
     0
 62
     5
  6
CONTINUOUS
  0
LAYER
  2
DEFPOINTS
 70
     0
 62
     7
  6
CONTINUOUS
  0
ENDTAB
  0
TABLE
  2
STYLE
 70
     3
  0
STYLE
  2
STANDARD
 70
     0
 40
0.0
 41
1.0
 50
0.0
 71
     0
 42
0.2
  3
txt
  4

  0
STYLE
  2

 70
     1
 40
0.0
 41
1.0
 50
0.0
 71
     0
 42
0.2
  3
ltypeshp.shx
  4

  0
STYLE
  2
寸法
 70
     0
 40
4000.0
 41
1.0
 50
0.0
 71
     0
 42
400.0
  3
txt.shx
  4
bigfont.shx
  0
ENDTAB
  0
TABLE
  2
VIEW
 70
     0
  0
ENDTAB
  0
TABLE
  2
UCS
 70
     0
  0
ENDTAB
  0
TABLE
  2
APPID
 70
     1
  0
APPID
  2
ACAD
 70
     0
  0
ENDTAB
  0
TABLE
  2
DIMSTYLE
 70
     4
  0
DIMSTYLE
  2
STANDARD
 70
     0
  3

  4

  5

  6

  7

 40
1.0
 41
0.18
 42
0.0625
 43
0.38
 44
0.18
 45
0.0
 46
0.0
 47
0.0
 48
0.0
140
0.18
141
0.09
142
0.0
143
25.399999999999999
144
1.0
145
0.0
146
1.0
147
0.09
 71
     0
 72
     0
 73
     1
 74
     1
 75
     0
 76
     0
 77
     0
 78
     0
170
     0
171
     2
172
     0
173
     0
174
     0
175
     0
176
     0
177
     0
178
     0
  0
DIMSTYLE
  2
30_矢印
 70
     0
  3

  4

  5
OPEN30
  6

  7

 40
100.0
 41
3.0
 42
10.0
 43
10.0
 44
1.0
 45
0.0
 46
0.0
 47
0.0
 48
0.0
140
4.0
141
0.0
142
0.0
143
25.399999999999999
144
1.0
145
0.0
146
1.0
147
2.0
 71
     0
 72
     0
 73
     0
 74
     0
 75
     0
 76
     0
 77
     1
 78
     0
170
     0
171
     2
172
     0
173
     0
174
     0
175
     0
176
     0
177
     0
178
     0
  0
DIMSTYLE
  2
30_矢印値内
 70
     0
  3

  4

  5
OPEN30
  6

  7

 40
100.0
 41
3.0
 42
20.0
 43
10.0
 44
1.0
 45
0.0
 46
0.0
 47
0.0
 48
0.0
140
4.0
141
0.0
142
0.0
143
25.399999999999999
144
1.0
145
0.0
146
1.0
147
1.0
 71
     0
 72
     0
 73
     0
 74
     0
 75
     0
 76
     0
 77
     1
 78
     0
170
     0
171
     2
172
     1
173
     0
174
     0
175
     0
176
     0
177
     0
178
     0
  0
DIMSTYLE
  2
30_矢印角度記入
 70
     0
  3

  4

  5
OPEN30
  6

  7

 40
100.0
 41
3.0
 42
3.0
 43
10.0
 44
1.0
 45
0.0
 46
0.0
 47
0.0
 48
0.0
140
4.0
141
0.09
142
0.0
143
25.399999999999999
144
1.0
145
0.0
146
1.0
147
2.0
 71
     0
 72
     0
 73
     0
 74
     0
 75
     0
 76
     0
 77
     1
 78
     0
170
     0
171
     2
172
     0
173
     0
174
     0
175
     0
176
     0
177
     0
178
     0
  0
ENDTAB
  0
ENDSEC
  0
SECTION
  2
BLOCKS
  0
BLOCK
  8
0
  2
$MODEL_SPACE
 70
     0
 10
0.0
 20
0.0
 30
0.0
  3
$MODEL_SPACE
  1

  0
ENDBLK
  5
21
  8
0
  0
BLOCK
 67
     1
  8
0
  2
$PAPER_SPACE
 70
     0
 10
0.0
 20
0.0
 30
0.0
  3
$PAPER_SPACE
  1

  0
ENDBLK
  5
5B
 67
     1
  8
0
  0
BLOCK
  8
0
  2
_OPEN30
 70
     0
 10
0.0
 20
0.0
 30
0.0
  3
_OPEN30
  1

  0
LINE
  5
1C4
  8
0
  6
BYBLOCK
 62
     0
 10
-1.0
 20
0.26794919
 30
0.0
 11
0.0
 21
0.0
 31
0.0
  0
LINE
  5
1C5
  8
0
  6
BYBLOCK
 62
     0
 10
0.0
 20
0.0
 30
0.0
 11
-1.0
 21
-0.26794919
 31
0.0
  0
LINE
  5
1C6
  8
0
  6
BYBLOCK
 62
     0
 10
0.0
 20
0.0
 30
0.0
 11
-1.0
 21
0.0
 31
0.0
  0
ENDBLK
  5
1C8
  8
0
  0
BLOCK
  8
0
  2
_CLOSEDBLANK
 70
     0
 10
0.0
 20
0.0
 30
0.0
  3
_CLOSEDBLANK
  1

  0
LINE
  5
299
  8
0
  6
BYBLOCK
 62
     0
 10
-1.0
 20
0.1666666666666666
 30
0.0
 11
0.0
 21
0.0
 31
0.0
  0
LINE
  5
29A
  8
0
  6
BYBLOCK
 62
     0
 10
0.0
 20
0.0
 30
0.0
 11
-1.0
 21
-0.1666666666666666
 31
0.0
  0
LINE
  5
29B
  8
0
  6
BYBLOCK
 62
     0
 10
-1.0
 20
0.1666666666666666
 30
0.0
 11
-1.0
 21
-0.1666666666666666
 31
0.0
  0
ENDBLK
  5
29D
  8
0
  0
BLOCK
  8
0
  2
_DOT
 70
     0
 10
0.0
 20
0.0
 30
0.0
  3
_DOT
  1

  0
POLYLINE
  5
29F
  8
0
  6
BYBLOCK
 62
     0
 66
     1
 10
0.0
 20
0.0
 30
0.0
 70
     1
 40
0.5
 41
0.5
  0
VERTEX
  5
21EB
  8
0
  6
BYBLOCK
 62
     0
 10
-0.25
 20
0.0
 30
0.0
 42
1.0
  0
VERTEX
  5
21EC
  8
0
  6
BYBLOCK
 62
     0
 10
0.25
 20
0.0
 30
0.0
 42
1.0
  0
SEQEND
  5
21ED
  8
0
  6
BYBLOCK
 62
     0
  0
LINE
  5
2A0
  8
0
  6
BYBLOCK
 62
     0
 10
-0.5
 20
0.0
 30
0.0
 11
-1.0
 21
0.0
 31
0.0
  0
ENDBLK
  5
2A2
  8
0
  0
BLOCK
  8
0
 62
     0
  2
SUNPO
 70
     0
 10
0.0
 20
0.0
 30
0.0
  3
SUNPO
  1

  0
LINE
  5
213F
  8
寸法
  6
CONTINUOUS
 62
     0
 10
44507.933931732368
 20
45903.789435496423
 30
0.0
 11
61703.67516214319
 21
45903.789435496408
 31
0.0
  0
LINE
  5
2140
  8
寸法
  6
CONTINUOUS
 62
     0
 10
46007.933931732368
 20
44903.789435496423
 30
0.0
 11
61703.67516214319
 21
44903.789435496408
 31
0.0
  0
LINE
  5
2141
  8
寸法
  6
CONTINUOUS
 62
     0
 10
47507.933931732368
 20
43903.789435496423
 30
0.0
 11
61703.67516214319
 21
43903.789435496423
 31
0.0
  0
LINE
  5
2142
  8
寸法
  6
CONTINUOUS
 62
     0
 10
49007.933931732383
 20
42903.789435496423
 30
0.0
 11
61703.67516214319
 21
42903.789435496408
 31
0.0
  0
LINE
  5
2143
  8
寸法
  6
CONTINUOUS
 62
     0
 10
50507.933931732368
 20
41903.789435496408
 30
0.0
 11
61703.67516214319
 21
41903.789435496408
 31
0.0
  0
LINE
  5
2144
  8
寸法
  6
CONTINUOUS
 62
     0
 10
52007.933931732368
 20
40903.789435496423
 30
0.0
 11
61703.67516214319
 21
40903.789435496423
 31
0.0
  0
LINE
  5
2145
  8
寸法
  6
CONTINUOUS
 62
     0
 10
52007.933931732368
 20
40903.789435496423
 30
0.0
 11
61703.67516214319
 21
40903.789435496423
 31
0.0
  0
LINE
  5
2146
  8
寸法
  6
CONTINUOUS
 62
     0
 10
53507.933931732368
 20
39903.78943549643
 30
0.0
 11
61703.67516214319
 21
39903.78943549643
 31
0.0
  0
LINE
  5
2147
  8
寸法
  6
CONTINUOUS
 62
     0
 10
55007.933931732368
 20
38903.789435496423
 30
0.0
 11
61703.67516214319
 21
38903.789435496423
 31
0.0
  0
LINE
  5
2148
  8
寸法
  6
CONTINUOUS
 62
     0
 10
56507.933931732383
 20
37903.789435496423
 30
0.0
 11
61703.67516214319
 21
37903.789435496423
 31
0.0
  0
LINE
  5
2149
  8
寸法
  6
CONTINUOUS
 62
     0
 10
58007.933931732368
 20
36903.789435496423
 30
0.0
 11
61703.67516214319
 21
36903.789435496423
 31
0.0
  0
LINE
  5
214A
  8
寸法
  6
CONTINUOUS
 62
     0
 10
59507.933931732368
 20
35903.789435496423
 30
0.0
 11
61703.67516214319
 21
35903.789435496423
 31
0.0
  0
LINE
  5
214B
  8
寸法
  6
CONTINUOUS
 62
     0
 10
59507.933931732368
 20
34903.78943549643
 30
0.0
 11
61703.67516214319
 21
34903.78943549643
 31
0.0
  0
INSERT
  5
214C
  8
ZUWAKU
  6
CONTINUOUS
  2
*U72
 10
0.0
 20
0.0
 30
0.0
  0
INSERT
  5
214D
  8
寸法
  6
CONTINUOUS
 62
     0
  2
_OPEN30
 10
61603.67516214319
 20
44903.789435496408
 30
0.0
 41
300.0
 42
300.0
 43
300.0
 50
270.0
  0
INSERT
  5
214E
  8
寸法
  6
CONTINUOUS
 62
     0
  2
_OPEN30
 10
61603.67516214319
 20
45903.789435496408
 30
0.0
 41
300.0
 42
300.0
 43
300.0
 50
90.0
  0
LINE
  5
214F
  8
寸法
  6
CONTINUOUS
 62
     0
 10
61603.67516214319
 20
45603.789435496423
 30
0.0
 11
61603.67516214319
 21
45203.789435496408
 31
0.0
  0
INSERT
  5
2150
  8
ZUWAKU
  6
CONTINUOUS
  2
*U73
 10
0.0
 20
0.0
 30
0.0
  0
INSERT
  5
2151
  8
寸法
  6
CONTINUOUS
 62
     0
  2
_OPEN30
 10
61603.67516214319
 20
43903.789435496423
 30
0.0
 41
300.0
 42
300.0
 43
300.0
 50
270.0
  0
INSERT
  5
2152
  8
寸法
  6
CONTINUOUS
 62
     0
  2
_OPEN30
 10
61603.67516214319
 20
44903.789435496408
 30
0.0
 41
300.0
 42
300.0
 43
300.0
 50
90.0
  0
LINE
  5
2153
  8
寸法
  6
CONTINUOUS
 62
     0
 10
61603.67516214319
 20
44603.789435496408
 30
0.0
 11
61603.67516214319
 21
44203.789435496408
 31
0.0
  0
INSERT
  5
2154
  8
ZUWAKU
  6
CONTINUOUS
  2
*U74
 10
0.0
 20
0.0
 30
0.0
  0
INSERT
  5
2155
  8
寸法
  6
CONTINUOUS
 62
     0
  2
_OPEN30
 10
61603.67516214319
 20
42903.789435496408
 30
0.0
 41
300.0
 42
300.0
 43
300.0
 50
270.0
  0
INSERT
  5
2156
  8
寸法
  6
CONTINUOUS
 62
     0
  2
_OPEN30
 10
61603.67516214319
 20
43903.789435496423
 30
0.0
 41
300.0
 42
300.0
 43
300.0
 50
90.0
  0
LINE
  5
2157
  8
寸法
  6
CONTINUOUS
 62
     0
 10
61603.67516214319
 20
43603.789435496408
 30
0.0
 11
61603.67516214319
 21
43203.789435496408
 31
0.0
  0
INSERT
  5
2158
  8
ZUWAKU
  6
CONTINUOUS
  2
*U75
 10
0.0
 20
0.0
 30
0.0
  0
INSERT
  5
2159
  8
寸法
  6
CONTINUOUS
 62
     0
  2
_OPEN30
 10
61603.67516214319
 20
41903.789435496408
 30
0.0
 41
300.0
 42
300.0
 43
300.0
 50
270.0
  0
INSERT
  5
215A
  8
寸法
  6
CONTINUOUS
 62
     0
  2
_OPEN30
 10
61603.67516214319
 20
42903.789435496408
 30
0.0
 41
300.0
 42
300.0
 43
300.0
 50
90.0
  0
LINE
  5
215B
  8
寸法
  6
CONTINUOUS
 62
     0
 10
61603.67516214319
 20
42603.789435496423
 30
0.0
 11
61603.67516214319
 21
42203.789435496423
 31
0.0
  0
INSERT
  5
215C
  8
ZUWAKU
  6
CONTINUOUS
  2
*U76
 10
0.0
 20
0.0
 30
0.0
  0
INSERT
  5
215D
  8
寸法
  6
CONTINUOUS
 62
     0
  2
_OPEN30
 10
61603.67516214319
 20
40903.789435496423
 30
0.0
 41
300.0
 42
300.0
 43
300.0
 50
270.0
  0
INSERT
  5
215E
  8
寸法
  6
CONTINUOUS
 62
     0
  2
_OPEN30
 10
61603.67516214319
 20
41903.789435496408
 30
0.0
 41
300.0
 42
300.0
 43
300.0
 50
90.0
  0
LINE
  5
215F
  8
寸法
  6
CONTINUOUS
 62
     0
 10
61603.67516214319
 20
41603.789435496408
 30
0.0
 11
61603.67516214319
 21
41203.789435496423
 31
0.0
  0
INSERT
  5
2160
  8
ZUWAKU
  6
CONTINUOUS
  2
*U77
 10
0.0
 20
0.0
 30
0.0
  0
INSERT
  5
2161
  8
寸法
  6
CONTINUOUS
 62
     0
  2
_OPEN30
 10
61603.67516214319
 20
39903.78943549643
 30
0.0
 41
300.0
 42
300.0
 43
300.0
 50
270.0
  0
INSERT
  5
2162
  8
寸法
  6
CONTINUOUS
 62
     0
  2
_OPEN30
 10
61603.67516214319
 20
40903.789435496423
 30
0.0
 41
300.0
 42
300.0
 43
300.0
 50
90.0
  0
LINE
  5
2163
  8
寸法
  6
CONTINUOUS
 62
     0
 10
61603.67516214319
 20
40603.789435496423
 30
0.0
 11
61603.67516214319
 21
40203.789435496423
 31
0.0
  0
INSERT
  5
2164
  8
ZUWAKU
  6
CONTINUOUS
  2
*U78
 10
0.0
 20
0.0
 30
0.0
  0
INSERT
  5
2165
  8
寸法
  6
CONTINUOUS
 62
     0
  2
_OPEN30
 10
61603.67516214319
 20
38903.789435496423
 30
0.0
 41
300.0
 42
300.0
 43
300.0
 50
270.0
  0
INSERT
  5
2166
  8
寸法
  6
CONTINUOUS
 62
     0
  2
_OPEN30
 10
61603.67516214319
 20
39903.78943549643
 30
0.0
 41
300.0
 42
300.0
 43
300.0
 50
90.0
  0
LINE
  5
2167
  8
寸法
  6
CONTINUOUS
 62
     0
 10
61603.67516214319
 20
39603.789435496423
 30
0.0
 11
61603.67516214319
 21
39203.789435496423
 31
0.0
  0
INSERT
  5
2168
  8
ZUWAKU
  6
CONTINUOUS
  2
*U79
 10
0.0
 20
0.0
 30
0.0
  0
INSERT
  5
2169
  8
寸法
  6
CONTINUOUS
 62
     0
  2
_OPEN30
 10
61603.67516214319
 20
37903.789435496423
 30
0.0
 41
300.0
 42
300.0
 43
300.0
 50
270.0
  0
INSERT
  5
216A
  8
寸法
  6
CONTINUOUS
 62
     0
  2
_OPEN30
 10
61603.67516214319
 20
38903.789435496423
 30
0.0
 41
300.0
 42
300.0
 43
300.0
 50
90.0
  0
LINE
  5
216B
  8
寸法
  6
CONTINUOUS
 62
     0
 10
61603.67516214319
 20
38603.789435496423
 30
0.0
 11
61603.67516214319
 21
38203.789435496423
 31
0.0
  0
INSERT
  5
216C
  8
ZUWAKU
  6
CONTINUOUS
  2
*U80
 10
0.0
 20
0.0
 30
0.0
  0
INSERT
  5
216D
  8
寸法
  6
CONTINUOUS
 62
     0
  2
_OPEN30
 10
61603.67516214319
 20
36903.789435496423
 30
0.0
 41
300.0
 42
300.0
 43
300.0
 50
270.0
  0
INSERT
  5
216E
  8
寸法
  6
CONTINUOUS
 62
     0
  2
_OPEN30
 10
61603.67516214319
 20
37903.789435496423
 30
0.0
 41
300.0
 42
300.0
 43
300.0
 50
90.0
  0
LINE
  5
216F
  8
寸法
  6
CONTINUOUS
 62
     0
 10
61603.67516214319
 20
37603.78943549643
 30
0.0
 11
61603.67516214319
 21
37203.78943549643
 31
0.0
  0
INSERT
  5
2170
  8
ZUWAKU
  6
CONTINUOUS
  2
*U81
 10
0.0
 20
0.0
 30
0.0
  0
INSERT
  5
2171
  8
寸法
  6
CONTINUOUS
 62
     0
  2
_OPEN30
 10
61603.67516214319
 20
35903.789435496423
 30
0.0
 41
300.0
 42
300.0
 43
300.0
 50
270.0
  0
INSERT
  5
2172
  8
寸法
  6
CONTINUOUS
 62
     0
  2
_OPEN30
 10
61603.67516214319
 20
36903.789435496423
 30
0.0
 41
300.0
 42
300.0
 43
300.0
 50
90.0
  0
LINE
  5
2173
  8
寸法
  6
CONTINUOUS
 62
     0
 10
61603.67516214319
 20
36603.789435496423
 30
0.0
 11
61603.67516214319
 21
36203.789435496423
 31
0.0
  0
INSERT
  5
2174
  8
ZUWAKU
  6
CONTINUOUS
  2
*U82
 10
0.0
 20
0.0
 30
0.0
  0
INSERT
  5
2175
  8
寸法
  6
CONTINUOUS
 62
     0
  2
_OPEN30
 10
61603.67516214319
 20
34903.78943549643
 30
0.0
 41
300.0
 42
300.0
 43
300.0
 50
270.0
  0
INSERT
  5
2176
  8
寸法
  6
CONTINUOUS
 62
     0
  2
_OPEN30
 10
61603.67516214319
 20
35903.789435496423
 30
0.0
 41
300.0
 42
300.0
 43
300.0
 50
90.0
  0
LINE
  5
2177
  8
寸法
  6
CONTINUOUS
 62
     0
 10
61603.67516214319
 20
35603.789435496423
 30
0.0
 11
61603.67516214319
 21
35203.789435496423
 31
0.0
  0
ENDBLK
  5
213E
  8
0
 62
     0
  0
BLOCK
  8
0
  2
*U38
 70
     1
 10
0.0
 20
0.0
 30
0.0
  3
*U38
  1

  0
TEXT
  5
21EF
  8
寸法
  6
CONTINUOUS
 62
     0
 10
18723.017816682092
 20
49966.049828434698
 30
0.0
 40
400.0
  1
3000
  7
寸法
  0
ENDBLK
  5
21F1
  8
0
  0
BLOCK
  8
0
  2
*U39
 70
     1
 10
0.0
 20
0.0
 30
0.0
  3
*U39
  1

  0
TEXT
  5
21F3
  8
寸法
  6
CONTINUOUS
 62
     0
 10
21006.351150015431
 20
49966.049828434698
 30
0.0
 40
400.0
  1
1500
  7
寸法
  0
ENDBLK
  5
21F5
  8
0
  0
BLOCK
  8
0
  2
*U40
 70
     1
 10
0.0
 20
0.0
 30
0.0
  3
*U40
  1

  0
TEXT
  5
21F7
  8
寸法
  6
CONTINUOUS
 62
     0
 10
22506.351150015431
 20
49966.049828434698
 30
0.0
 40
400.0
  1
1500
  7
寸法
  0
ENDBLK
  5
21F9
  8
0
  0
BLOCK
  8
0
  2
*U41
 70
     1
 10
0.0
 20
0.0
 30
0.0
  3
*U41
  1

  0
TEXT
  5
21FB
  8
寸法
  6
CONTINUOUS
 62
     0
 10
24006.351150015431
 20
49966.049828434698
 30
0.0
 40
400.0
  1
1500
  7
寸法
  0
ENDBLK
  5
21FD
  8
0
  0
BLOCK
  8
0
  2
*U42
 70
     1
 10
0.0
 20
0.0
 30
0.0
  3
*U42
  1

  0
TEXT
  5
21FF
  8
寸法
  6
CONTINUOUS
 62
     0
 10
25506.351150015431
 20
49966.049828434698
 30
0.0
 40
400.0
  1
1500
  7
寸法
  0
ENDBLK
  5
2201
  8
0
  0
BLOCK
  8
0
  2
*U43
 70
     1
 10
0.0
 20
0.0
 30
0.0
  3
*U43
  1

  0
TEXT
  5
2203
  8
寸法
  6
CONTINUOUS
 62
     0
 10
27006.351150015431
 20
49966.049828434698
 30
0.0
 40
400.0
  1
1500
  7
寸法
  0
ENDBLK
  5
2205
  8
0
  0
BLOCK
  8
0
  2
*U44
 70
     1
 10
0.0
 20
0.0
 30
0.0
  3
*U44
  1

  0
TEXT
  5
2207
  8
寸法
  6
CONTINUOUS
 62
     0
 10
28506.351150015431
 20
49966.049828434698
 30
0.0
 40
400.0
  1
1500
  7
寸法
  0
ENDBLK
  5
2209
  8
0
  0
BLOCK
  8
0
  2
*U45
 70
     1
 10
0.0
 20
0.0
 30
0.0
  3
*U45
  1

  0
TEXT
  5
220B
  8
寸法
  6
CONTINUOUS
 62
     0
 10
30006.351150015431
 20
49966.049828434698
 30
0.0
 40
400.0
  1
1500
  7
寸法
  0
ENDBLK
  5
220D
  8
0
  0
BLOCK
  8
0
  2
*U46
 70
     1
 10
0.0
 20
0.0
 30
0.0
  3
*U46
  1

  0
TEXT
  5
220F
  8
寸法
  6
CONTINUOUS
 62
     0
 10
31506.351150015431
 20
49966.049828434698
 30
0.0
 40
400.0
  1
1500
  7
寸法
  0
ENDBLK
  5
2211
  8
0
  0
BLOCK
  8
0
  2
*U47
 70
     1
 10
0.0
 20
0.0
 30
0.0
  3
*U47
  1

  0
TEXT
  5
2213
  8
寸法
  6
CONTINUOUS
 62
     0
 10
33006.351150015427
 20
49966.049828434698
 30
0.0
 40
400.0
  1
1500
  7
寸法
  0
ENDBLK
  5
2215
  8
0
  0
BLOCK
  8
0
  2
*U48
 70
     1
 10
0.0
 20
0.0
 30
0.0
  3
*U48
  1

  0
TEXT
  5
2217
  8
寸法
  6
CONTINUOUS
 62
     0
 10
34506.351150015427
 20
49966.049828434698
 30
0.0
 40
400.0
  1
1500
  7
寸法
  0
ENDBLK
  5
2219
  8
0
  0
BLOCK
  8
0
  2
*U49
 70
     1
 10
0.0
 20
0.0
 30
0.0
  3
*U49
  1

  0
TEXT
  5
221B
  8
寸法
  6
CONTINUOUS
 62
     0
 10
7076.528478800883
 20
49966.049828434698
 30
0.0
 40
400.0
  1
3000
  7
寸法
  0
ENDBLK
  5
221D
  8
0
  0
BLOCK
  8
0
  2
*U50
 70
     1
 10
0.0
 20
0.0
 30
0.0
  3
*U50
  1

  0
TEXT
  5
221F
  8
寸法
  6
CONTINUOUS
 62
     0
 10
40374.600598399033
 20
49966.049828434698
 30
0.0
 40
400.0
  1
3000
  7
寸法
  0
ENDBLK
  5
2221
  8
0
  0
BLOCK
  8
0
  2
*U51
 70
     1
 10
0.0
 20
0.0
 30
0.0
  3
*U51
  1

  0
TEXT
  5
2223
  8
寸法
  6
CONTINUOUS
 62
     0
 10
42657.933931732368
 20
49966.049828434698
 30
0.0
 40
400.0
  1
1500
  7
寸法
  0
ENDBLK
  5
2225
  8
0
  0
BLOCK
  8
0
  2
*U52
 70
     1
 10
0.0
 20
0.0
 30
0.0
  3
*U52
  1

  0
TEXT
  5
2227
  8
寸法
  6
CONTINUOUS
 62
     0
 10
44157.933931732368
 20
49966.049828434698
 30
0.0
 40
400.0
  1
1500
  7
寸法
  0
ENDBLK
  5
2229
  8
0
  0
BLOCK
  8
0
  2
*U53
 70
     1
 10
0.0
 20
0.0
 30
0.0
  3
*U53
  1

  0
TEXT
  5
222B
  8
寸法
  6
CONTINUOUS
 62
     0
 10
45657.933931732383
 20
49966.049828434698
 30
0.0
 40
400.0
  1
1500
  7
寸法
  0
ENDBLK
  5
222D
  8
0
  0
BLOCK
  8
0
  2
*U54
 70
     1
 10
0.0
 20
0.0
 30
0.0
  3
*U54
  1

  0
TEXT
  5
222F
  8
寸法
  6
CONTINUOUS
 62
     0
 10
47157.933931732368
 20
49966.049828434698
 30
0.0
 40
400.0
  1
1500
  7
寸法
  0
ENDBLK
  5
2231
  8
0
  0
BLOCK
  8
0
  2
*U55
 70
     1
 10
0.0
 20
0.0
 30
0.0
  3
*U55
  1

  0
TEXT
  5
2233
  8
寸法
  6
CONTINUOUS
 62
     0
 10
48657.933931732383
 20
49966.049828434698
 30
0.0
 40
400.0
  1
1500
  7
寸法
  0
ENDBLK
  5
2235
  8
0
  0
BLOCK
  8
0
  2
*U56
 70
     1
 10
0.0
 20
0.0
 30
0.0
  3
*U56
  1

  0
TEXT
  5
2237
  8
寸法
  6
CONTINUOUS
 62
     0
 10
50157.933931732368
 20
49966.049828434698
 30
0.0
 40
400.0
  1
1500
  7
寸法
  0
ENDBLK
  5
2239
  8
0
  0
BLOCK
  8
0
  2
*U57
 70
     1
 10
0.0
 20
0.0
 30
0.0
  3
*U57
  1

  0
TEXT
  5
223B
  8
寸法
  6
CONTINUOUS
 62
     0
 10
51657.933931732368
 20
49966.049828434698
 30
0.0
 40
400.0
  1
1500
  7
寸法
  0
ENDBLK
  5
223D
  8
0
  0
BLOCK
  8
0
  2
*U58
 70
     1
 10
0.0
 20
0.0
 30
0.0
  3
*U58
  1

  0
TEXT
  5
223F
  8
寸法
  6
CONTINUOUS
 62
     0
 10
53157.933931732383
 20
49966.049828434698
 30
0.0
 40
400.0
  1
1500
  7
寸法
  0
ENDBLK
  5
2241
  8
0
  0
BLOCK
  8
0
  2
*U59
 70
     1
 10
0.0
 20
0.0
 30
0.0
  3
*U59
  1

  0
TEXT
  5
2243
  8
寸法
  6
CONTINUOUS
 62
     0
 10
54657.933931732368
 20
49966.049828434698
 30
0.0
 40
400.0
  1
1500
  7
寸法
  0
ENDBLK
  5
2245
  8
0
  0
BLOCK
  8
0
  2
*U60
 70
     1
 10
0.0
 20
0.0
 30
0.0
  3
*U60
  1

  0
TEXT
  5
2247
  8
寸法
  6
CONTINUOUS
 62
     0
 10
56157.933931732383
 20
49966.049828434698
 30
0.0
 40
400.0
  1
1500
  7
寸法
  0
ENDBLK
  5
2249
  8
0
  0
BLOCK
  8
0
  2
*U61
 70
     1
 10
0.0
 20
0.0
 30
0.0
  3
*U61
  1

  0
TEXT
  5
224B
  8
寸法
  6
CONTINUOUS
 62
     0
 10
47741.267265065711
 20
50966.04982843469
 30
0.0
 40
400.0
  1
18000
  7
寸法
  0
ENDBLK
  5
224D
  8
0
  0
BLOCK
  8
0
  2
*U62
 70
     1
 10
0.0
 20
0.0
 30
0.0
  3
*U62
  1

  0
TEXT
  5
224F
  8
寸法
  6
CONTINUOUS
 62
     0
 10
14758.50449150289
 20
27643.863393978441
 30
0.0
 40
400.0
  1
10000
  7
寸法
  0
ENDBLK
  5
2251
  8
0
  0
BLOCK
  8
0
  2
*U63
 70
     1
 10
0.0
 20
0.0
 30
0.0
  3
*U63
  1

  0
TEXT
  5
2253
  8
寸法
  6
CONTINUOUS
 62
     0
 10
12358.50449150289
 20
11949.169998323499
 30
0.0
 40
400.0
  1
5000
  7
寸法
  0
ENDBLK
  5
2255
  8
0
  0
BLOCK
  8
0
  2
*U64
 70
     1
 10
0.0
 20
0.0
 30
0.0
  3
*U64
  1

  0
TEXT
  5
2257
  8
寸法
  6
CONTINUOUS
 62
     0
 10
17358.504491502888
 20
11949.169998323499
 30
0.0
 40
400.0
  1
5000
  7
寸法
  0
ENDBLK
  5
2259
  8
0
  0
BLOCK
  8
0
  2
*U65
 70
     1
 10
0.0
 20
0.0
 30
0.0
  3
*U65
  1

  0
TEXT
  5
225B
  8
寸法
  6
CONTINUOUS
 62
     0
 10
7638.8911830850966
 20
22032.608278958782
 30
0.0
 40
400.0
  1
3000
 50
90.0
  7
寸法
  0
ENDBLK
  5
225D
  8
0
  0
BLOCK
  8
0
  2
*U66
 70
     1
 10
0.0
 20
0.0
 30
0.0
  3
*U66
  1

  0
TEXT
  5
225F
  8
寸法
  6
CONTINUOUS
 62
     0
 10
7638.8911830850957
 20
17032.608278958782
 30
0.0
 40
400.0
  1
7000
 50
90.0
  7
寸法
  0
ENDBLK
  5
2261
  8
0
  0
BLOCK
  8
0
  2
*U67
 70
     1
 10
0.0
 20
0.0
 30
0.0
  3
*U67
  1

  0
TEXT
  5
2263
  8
寸法
  6
CONTINUOUS
 62
     0
 10
6638.8911830850957
 20
18432.608278958771
 30
0.0
 40
400.0
  1
10000
 50
90.0
  7
寸法
  0
ENDBLK
  5
2265
  8
0
  0
BLOCK
  8
0
  2
*U68
 70
     1
 10
0.0
 20
0.0
 30
0.0
  3
*U68
  1

  0
TEXT
  5
2267
  8
寸法
  6
CONTINUOUS
 62
     0
 10
19180.422162597519
 20
15956.720272901201
 30
0.0
 40
400.0
  1
8602
 50
54.462322208025697
  7
寸法
  0
ENDBLK
  5
2269
  8
0
  0
BLOCK
  8
0
  2
*U69
 70
     1
 10
0.0
 20
0.0
 30
0.0
  3
*U69
  1

  0
TEXT
  5
226B
  8
寸法
  6
CONTINUOUS
 62
     0
 10
27543.537579824741
 20
22336.40741414388
 30
0.0
 40
400.0
  1
R2000
 50
0.0000000000005089
  7
寸法
  0
ENDBLK
  5
226D
  8
0
  0
BLOCK
  8
0
  2
*U70
 70
     1
 10
0.0
 20
0.0
 30
0.0
  3
*U70
  1

  0
TEXT
  5
226F
  8
寸法
  6
CONTINUOUS
 62
     0
 10
33638.559883394133
 20
22445.17525492658
 30
0.0
 40
400.0
  1
\U+22054000
 50
354.71979281379748
  7
寸法
  0
ENDBLK
  5
2271
  8
0
  0
BLOCK
  8
0
  2
*U71
 70
     1
 10
0.0
 20
0.0
 30
0.0
  3
*U71
  1

  0
TEXT
  5
2273
  8
寸法
  6
CONTINUOUS
 62
     0
 10
42498.930376549513
 20
23072.812984021231
 30
0.0
 40
400.0
  1
52°
 50
274.05458366102738
  7
寸法
  0
ENDBLK
  5
2275
  8
0
  0
BLOCK
  8
0
  2
*U72
 70
     1
 10
0.0
 20
0.0
 30
0.0
  3
*U72
  1

  0
TEXT
  5
2277
  8
寸法
  6
CONTINUOUS
 62
     0
 10
61503.675162143183
 20
44837.122768829751
 30
0.0
 40
400.0
  1
1000
 50
90.0
  7
寸法
  0
ENDBLK
  5
2279
  8
0
  0
BLOCK
  8
0
  2
*U73
 70
     1
 10
0.0
 20
0.0
 30
0.0
  3
*U73
  1

  0
TEXT
  5
227B
  8
寸法
  6
CONTINUOUS
 62
     0
 10
62188.973701986069
 20
43850.132110978353
 30
0.0
 40
400.0
  1
1000
 50
90.0
  7
寸法
  0
ENDBLK
  5
227D
  8
0
  0
BLOCK
  8
0
  2
*U74
 70
     1
 10
0.0
 20
0.0
 30
0.0
  3
*U74
  1

  0
TEXT
  5
227F
  8
寸法
  6
CONTINUOUS
 62
     0
 10
61503.675162143183
 20
42837.122768829751
 30
0.0
 40
400.0
  1
1000
 50
90.0
  7
寸法
  0
ENDBLK
  5
2281
  8
0
  0
BLOCK
  8
0
  2
*U75
 70
     1
 10
0.0
 20
0.0
 30
0.0
  3
*U75
  1

  0
TEXT
  5
2283
  8
寸法
  6
CONTINUOUS
 62
     0
 10
62188.973701986069
 20
41850.132110978353
 30
0.0
 40
400.0
  1
1000
 50
90.0
  7
寸法
  0
ENDBLK
  5
2285
  8
0
  0
BLOCK
  8
0
  2
*U76
 70
     1
 10
0.0
 20
0.0
 30
0.0
  3
*U76
  1

  0
TEXT
  5
2287
  8
寸法
  6
CONTINUOUS
 62
     0
 10
61503.675162143183
 20
40837.122768829773
 30
0.0
 40
400.0
  1
1000
 50
90.0
  7
寸法
  0
ENDBLK
  5
2289
  8
0
  0
BLOCK
  8
0
  2
*U77
 70
     1
 10
0.0
 20
0.0
 30
0.0
  3
*U77
  1

  0
TEXT
  5
228B
  8
寸法
  6
CONTINUOUS
 62
     0
 10
62188.973701986069
 20
39850.13211097836
 30
0.0
 40
400.0
  1
1000
 50
90.0
  7
寸法
  0
ENDBLK
  5
228D
  8
0
  0
BLOCK
  8
0
  2
*U78
 70
     1
 10
0.0
 20
0.0
 30
0.0
  3
*U78
  1

  0
TEXT
  5
228F
  8
寸法
  6
CONTINUOUS
 62
     0
 10
61503.675162143183
 20
38837.122768829773
 30
0.0
 40
400.0
  1
1000
 50
90.0
  7
寸法
  0
ENDBLK
  5
2291
  8
0
  0
BLOCK
  8
0
  2
*U79
 70
     1
 10
0.0
 20
0.0
 30
0.0
  3
*U79
  1

  0
TEXT
  5
2293
  8
寸法
  6
CONTINUOUS
 62
     0
 10
62188.973701986069
 20
37850.13211097836
 30
0.0
 40
400.0
  1
1000
 50
90.0
  7
寸法
  0
ENDBLK
  5
2295
  8
0
  0
BLOCK
  8
0
  2
*U80
 70
     1
 10
0.0
 20
0.0
 30
0.0
  3
*U80
  1

  0
TEXT
  5
2297
  8
寸法
  6
CONTINUOUS
 62
     0
 10
61503.675162143183
 20
36837.122768829773
 30
0.0
 40
400.0
  1
1000
 50
90.0
  7
寸法
  0
ENDBLK
  5
2299
  8
0
  0
BLOCK
  8
0
  2
*U81
 70
     1
 10
0.0
 20
0.0
 30
0.0
  3
*U81
  1

  0
TEXT
  5
229B
  8
寸法
  6
CONTINUOUS
 62
     0
 10
62188.973701986069
 20
35850.13211097836
 30
0.0
 40
400.0
  1
1000
 50
90.0
  7
寸法
  0
ENDBLK
  5
229D
  8
0
  0
BLOCK
  8
0
  2
*U82
 70
     1
 10
0.0
 20
0.0
 30
0.0
  3
*U82
  1

  0
TEXT
  5
229F
  8
寸法
  6
CONTINUOUS
 62
     0
 10
61503.675162143183
 20
34837.122768829773
 30
0.0
 40
400.0
  1
1000
 50
90.0
  7
寸法
  0
ENDBLK
  5
22A1
  8
0
  0
BLOCK
  8
0
  2
*U83
 70
     1
 10
0.0
 20
0.0
 30
0.0
  3
*U83
  1

  0
TEXT
  5
22A3
  8
ZUWAKU
  6
CONTINUOUS
 62
     1
 10
5920.2577860222636
 20
65117.596686815094
 30
0.0
 40
4000.0
  1
A1 HP
  7
寸法
  0
TEXT
  5
22A4
  8
ZUWAKU
  6
CONTINUOUS
 62
     1
 10
22078.51153772758
 20
65117.596686815094
 30
0.0
 40
4000.0
  1
プロッタ450図枠 1/100
  7
寸法
  0
ENDBLK
  5
22A6
  8
0
  0
BLOCK
  8
0
  2
*U84
 70
     1
 10
0.0
 20
0.0
 30
0.0
  3
*U84
  1

  0
TEXT
  5
22A8
  8
ZUWAKU
  6
CONTINUOUS
 62
     1
 10
-120.1657788999468
 20
-16308.54454976186
 30
0.0
 40
4000.0
  1
A2 HP
  7
寸法
  0
TEXT
  5
22A9
  8
ZUWAKU
  6
CONTINUOUS
 62
     1
 10
16038.08797280537
 20
-16308.54454976186
 30
0.0
 40
4000.0
  1
プロッタ450図枠 1/100
  7
寸法
  0
ENDBLK
  5
22AB
  8
0
  0
BLOCK
  8
0
  2
*U85
 70
     1
 10
0.0
 20
0.0
 30
0.0
  3
*U85
  1

  0
TEXT
  5
22AD
  8
ZUWAKU
  6
CONTINUOUS
 62
     1
 10
129904.5039484498
 20
41102.205942928427
 30
0.0
 40
4000.0
  1
A3
  7
寸法
  0
TEXT
  5
22AE
  8
ZUWAKU
  6
CONTINUOUS
 62
     1
 10
136747.6144532247
 20
41102.205942928427
 30
0.0
 40
4000.0
  1
プリンター図枠 1/100
  7
寸法
  0
ENDBLK
  5
22B0
  8
0
  0
ENDSEC
  0
SECTION
  2
ENTITIES
  0
LINE
  5
A0
  8
ZUWAKU
 62
   131
 10
0.0
 20
0.0
 30
0.0
 11
84100.0
 21
0.0
 31
0.0
  0
LINE
  5
A1
  8
ZUWAKU
 62
   131
 10
0.0
 20
0.0
 30
0.0
 11
0.0
 21
59400.0
 31
0.0
  0
LINE
  5
A2
  8
ZUWAKU
 62
   131
 10
84100.000000000015
 20
-0.0000000000205979
 30
0.0
 11
84100.000000000015
 21
59399.999999999971
 31
0.0
  0
LINE
  5
A3
  8
ZUWAKU
 62
   131
 10
0.0000000000145519
 20
59399.999999999971
 30
0.0
 11
84100.000000000015
 21
59399.999999999971
 31
0.0
  0
LINE
  5
B2
  8
ZUWAKU
  6
CONTINUOUS
 62
   150
 10
1800.0
 20
1800.0
 30
0.0
 11
82300.000000000015
 21
1800.0
 31
0.0
  0
LINE
  5
CB
  8
ZUWAKU
  6
CONTINUOUS
 62
   150
 10
1800.0
 20
1800.0
 30
0.0
 11
1800.0
 21
57599.999999999978
 31
0.0
  0
LINE
  5
CD
  8
ZUWAKU
  6
CONTINUOUS
 62
   150
 10
82300.000000000015
 20
1800.0
 30
0.0
 11
82300.000000000015
 21
57599.999999999978
 31
0.0
  0
LINE
  5
219D
  8
ZUWAKU
  6
CONTINUOUS
 62
   150
 10
140314.5321017759
 20
33561.175064333409
 30
0.0
 11
180314.53210177581
 21
33561.175064333387
 31
0.0
  0
LINE
  5
219E
  8
ZUWAKU
 62
   131
 10
139314.5321017759
 20
34561.175064333402
 30
0.0
 11
181314.5321017759
 21
34561.175064333402
 31
0.0
  0
LINE
  5
21A0
  8
ZUWAKU
 62
   131
 10
139314.5321017759
 20
4861.1750643333944
 30
0.0
 11
139314.5321017759
 21
34561.175064333431
 31
0.0
  0
LINE
  5
21AF
  8
ZUWAKU
  6
CONTINUOUS
 62
   150
 10
1800.0
 20
57599.999999999978
 30
0.0
 11
82300.000000000015
 21
57599.999999999978
 31
0.0
  0
LINE
  5
21B6
  8
ZUWAKU
  6
CONTINUOUS
 62
   150
 10
140314.5321017759
 20
5861.1750643334008
 30
0.0
 11
140314.5321017759
 21
33561.175064333409
 31
0.0
  0
LINE
  5
21BA
  8
ZUWAKU
 62
   131
 10
181314.5321017759
 20
4861.175064333398
 30
0.0
 11
181314.5321017759
 21
34561.175064333402
 31
0.0
  0
LINE
  5
21BC
  8
詳細
  6
CONTINUOUS
 10
180314.53210177581
 20
33561.175064333387
 30
0.0
 11
180314.5321017759
 21
5861.175064333398
 31
0.0
  0
LINE
  5
21BD
  8
ZUWAKU
 62
   131
 10
139314.5321017759
 20
4861.1750643333944
 30
0.0
 11
181314.5321017759
 21
4861.175064333398
 31
0.0
  0
LINE
  5
21C0
  8
ZUWAKU
 62
   131
 10
142844.49635224001
 20
4861.1750643333944
 30
0.0
 11
181314.5321017759
 21
4861.175064333398
 31
0.0
  0
LINE
  5
21C2
  8
ZUWAKU
  6
CONTINUOUS
 62
   150
 10
140314.5321017759
 20
5861.1750643334008
 30
0.0
 11
180314.5321017759
 21
5861.175064333398
 31
0.0
  0
INSERT
  5
21C3
  8
ZUWAKU
  6
CONTINUOUS
  2
*U83
 10
0.0
 20
0.0
 30
0.0
  0
LINE
  5
21C5
  8
ZUWAKU
  6
CONTINUOUS
 62
   150
 10
1800.0
 20
-22271.553432652599
 30
0.0
 11
57600.0
 21
-22271.553432652599
 31
0.0
  0
LINE
  5
21C6
  8
ZUWAKU
  6
CONTINUOUS
 62
   150
 10
57600.0
 20
-60671.553432652603
 30
0.0
 11
57600.0
 21
-22271.553432652599
 31
0.0
  0
LINE
  5
21C7
  8
ZUWAKU
  6
CONTINUOUS
 62
   150
 10
1800.0
 20
-60671.55343265261
 30
0.0
 11
1800.0
 21
-22271.553432652599
 31
0.0
  0
LINE
  5
21C8
  8
ZUWAKU
  6
CONTINUOUS
 62
   150
 10
1800.0
 20
-60671.55343265261
 30
0.0
 11
57600.0
 21
-60671.553432652603
 31
0.0
  0
LINE
  5
21C9
  8
ZUWAKU
 62
   131
 10
0.0000000000145519
 20
-20471.553432652599
 30
0.0
 11
59400.000000000007
 21
-20471.55343265261
 31
0.0
  0
LINE
  5
21CB
  8
ZUWAKU
 62
   131
 10
0.0
 20
-62471.553432652603
 30
0.0
 11
0.0
 21
-20471.553432652581
 31
0.0
  0
LINE
  5
21CE
  8
ZUWAKU
 62
   131
 10
59400.0
 20
-62471.553432652589
 30
0.0
 11
59400.000000000007
 21
-20471.55343265261
 31
0.0
  0
LINE
  5
21D1
  8
ZUWAKU
 62
   131
 10
0.0
 20
-62471.553432652603
 30
0.0
 11
59400.0
 21
-62471.553432652589
 31
0.0
  0
INSERT
  5
21D3
  8
ZUWAKU
  6
CONTINUOUS
  2
*U84
 10
0.0
 20
0.0
 30
0.0
  0
INSERT
  5
21D4
  8
ZUWAKU
  6
CONTINUOUS
  2
*U85
 10
0.0
 20
0.0
 30
0.0
  0
VIEWPORT
  5
B9
 67
     1
  8
0
 10
415.45931768417358
 20
279.99268913269049
 30
0.0
 40
1004.458732784959
 41
598.73296500428091
 68
     1
 69
     1
1001
ACAD
1000
MVIEW
1002
{
1070
    16
1010
0.0
1020
0.0
1030
0.0
1010
0.0
1020
0.0
1030
1.0
1040
0.0
1040
598.73296500428091
1040
415.45931768417358
1040
279.99268913269049
1040
50.0
1040
0.0
1040
0.0
1070
     0
1070
  1000
1070
     1
1070
     1
1070
     0
1070
     0
1070
     0
1070
     0
1040
0.0
1040
0.0
1040
0.0
1040
0.5
1040
0.5
1040
0.5
1040
0.5
1070
     0
1002
{
1002
}
1002
}
  0
ENDSEC
  0
EOF
