  0
SECTION
  2
HEADER
  9
$ACADVER
  1
AC1009
  9
$INSBASE
 10
0.0
 20
0.0
 30
0.0
  9
$EXTMIN
 10
0.0
 20
-0.0000000000205979
 30
0.0
  9
$EXTMAX
 10
84100.000000000015
 20
59400.0
 30
0.0
  9
$LIMMIN
 10
0.0
 20
0.0
  9
$LIMMAX
 10
12.0
 20
9.0
  9
$ORTHOMODE
 70
     0
  9
$REGENMODE
 70
     1
  9
$FILLMODE
 70
     1
  9
$QTEXTMODE
 70
     0
  9
$MIRRTEXT
 70
     0
  9
$DRAGMODE
 70
     2
  9
$LTSCALE
 40
1000.0
  9
$OSMODE
 70
    45
  9
$ATTMODE
 70
     1
  9
$TEXTSIZE
 40
0.2
  9
$TRACEWID
 40
0.05
  9
$TEXTSTYLE
  7
STANDARD
  9
$CLAYER
  8
SRC
  9
$CELTYPE
  6
CONTINUOUS
  9
$CECOLOR
 62
   256
  9
$DIMSCALE
 40
1.0
  9
$DIMASZ
 40
0.18
  9
$DIMEXO
 40
0.0625
  9
$DIMDLI
 40
0.38
  9
$DIMRND
 40
0.0
  9
$DIMDLE
 40
0.0
  9
$DIMEXE
 40
0.18
  9
$DIMTP
 40
0.0
  9
$DIMTM
 40
0.0
  9
$DIMTXT
 40
0.18
  9
$DIMCEN
 40
0.09
  9
$DIMTSZ
 40
0.0
  9
$DIMTOL
 70
     0
  9
$DIMLIM
 70
     0
  9
$DIMTIH
 70
     1
  9
$DIMTOH
 70
     1
  9
$DIMSE1
 70
     0
  9
$DIMSE2
 70
     0
  9
$DIMTAD
 70
     0
  9
$DIMZIN
 70
     0
  9
$DIMBLK
  1

  9
$DIMASO
 70
     1
  9
$DIMSHO
 70
     1
  9
$DIMPOST
  1

  9
$DIMAPOST
  1

  9
$DIMALT
 70
     0
  9
$DIMALTD
 70
     2
  9
$DIMALTF
 40
25.399999999999999
  9
$DIMLFAC
 40
1.0
  9
$DIMTOFL
 70
     0
  9
$DIMTVP
 40
0.0
  9
$DIMTIX
 70
     0
  9
$DIMSOXD
 70
     0
  9
$DIMSAH
 70
     0
  9
$DIMBLK1
  1

  9
$DIMBLK2
  1

  9
$DIMSTYLE
  2
STANDARD
  9
$DIMCLRD
 70
     0
  9
$DIMCLRE
 70
     0
  9
$DIMCLRT
 70
     0
  9
$DIMTFAC
 40
1.0
  9
$DIMGAP
 40
0.09
  9
$LUNITS
 70
     2
  9
$LUPREC
 70
     4
  9
$SKETCHINC
 40
0.1
  9
$FILLETRAD
 40
0.0
  9
$AUNITS
 70
     0
  9
$AUPREC
 70
     0
  9
$MENU
  1
.
  9
$ELEVATION
 40
0.0
  9
$PELEVATION
 40
0.0
  9
$THICKNESS
 40
0.0
  9
$LIMCHECK
 70
     0
  9
$BLIPMODE
 70
     0
  9
$CHAMFERA
 40
0.0
  9
$CHAMFERB
 40
0.0
  9
$SKPOLY
 70
     0
  9
$TDCREATE
 40
2455007.3016793169
  9
$TDUPDATE
 40
2455056.6267645019
  9
$TDINDWG
 40
0.2351714468
  9
$TDUSRTIMER
 40
0.2351714468
  9
$USRTIMER
 70
     1
  9
$ANGBASE
 50
0.0
  9
$ANGDIR
 70
     0
  9
$PDMODE
 70
     0
  9
$PDSIZE
 40
0.0
  9
$PLINEWID
 40
0.0
  9
$COORDS
 70
     1
  9
$SPLFRAME
 70
     0
  9
$SPLINETYPE
 70
     6
  9
$SPLINESEGS
 70
     8
  9
$ATTDIA
 70
     0
  9
$ATTREQ
 70
     1
  9
$HANDLING
 70
     1
  9
$HANDSEED
  5
270
  9
$SURFTAB1
 70
     6
  9
$SURFTAB2
 70
     6
  9
$SURFTYPE
 70
     6
  9
$SURFU
 70
     6
  9
$SURFV
 70
     6
  9
$UCSNAME
  2

  9
$UCSORG
 10
0.0
 20
0.0
 30
0.0
  9
$UCSXDIR
 10
1.0
 20
0.0
 30
0.0
  9
$UCSYDIR
 10
0.0
 20
1.0
 30
0.0
  9
$PUCSNAME
  2

  9
$PUCSORG
 10
0.0
 20
0.0
 30
0.0
  9
$PUCSXDIR
 10
1.0
 20
0.0
 30
0.0
  9
$PUCSYDIR
 10
0.0
 20
1.0
 30
0.0
  9
$USERI1
 70
     0
  9
$USERI2
 70
     0
  9
$USERI3
 70
     0
  9
$USERI4
 70
     0
  9
$USERI5
 70
     0
  9
$USERR1
 40
0.0
  9
$USERR2
 40
0.0
  9
$USERR3
 40
0.0
  9
$USERR4
 40
0.0
  9
$USERR5
 40
0.0
  9
$WORLDVIEW
 70
     1
  9
$SHADEDGE
 70
     3
  9
$SHADEDIF
 70
    70
  9
$TILEMODE
 70
     1
  9
$MAXACTVP
 70
    64
  9
$PLIMCHECK
 70
     0
  9
$PEXTMIN
 10
-5.8915941313339308
 20
-17.235462452865249
 30
0.0
  9
$PEXTMAX
 10
834.55964369493495
 20
576.36550757095301
 30
0.0
  9
$PLIMMIN
 10
-4.995333194732666
 20
-16.933305740356442
  9
$PLIMMAX
 10
835.91396856307995
 20
576.9186840057373
  9
$UNITMODE
 70
     0
  9
$VISRETAIN
 70
     1
  9
$PLINEGEN
 70
     0
  9
$PSLTSCALE
 70
     1
  0
ENDSEC
  0
SECTION
  2
TABLES
  0
TABLE
  2
VPORT
 70
     2
  0
VPORT
  2
*ACTIVE
 70
     0
 10
0.0
 20
0.0
 11
1.0
 21
1.0
 12
42050.000195810549
 22
29700.000138301399
 13
0.0
 23
0.0
 14
0.5
 24
0.5
 15
0.5
 25
0.5
 16
0.0
 26
0.0
 36
1.0
 17
0.0
 27
0.0
 37
0.0
 40
119807.03148969779
 41
1.717696629213483
 42
50.0
 43
0.0
 44
0.0
 50
0.0
 51
0.0
 71
     0
 72
  1000
 73
     1
 74
     2
 75
     0
 76
     0
 77
     0
 78
     0
  0
ENDTAB
  0
TABLE
  2
LTYPE
 70
    11
  0
LTYPE
  2
CONTINUOUS
 70
     0
  3
Solid line
 72
    65
 73
     0
 40
0.0
  0
LTYPE
  2
ACAD_ISO03W100
 70
     0
  3
ISO dash space __    __    __    __    __    __
 72
    65
 73
     2
 40
30.0
 49
12.0
 49
-18.0
  0
LTYPE
  2
ACAD_ISO02W100
 70
     0
  3
ISO dash __ __ __ __ __ __ __ __ __ __ __ __ __
 72
    65
 73
     2
 40
15.0
 49
12.0
 49
-3.0
  0
LTYPE
  2
ACAD_ISO05W100
 70
     0
  3
ISO long-dash double-dot ____ .. ____ .. ____ .
 72
    65
 73
     6
 40
33.0
 49
24.0
 49
-3.0
 49
0.0
 49
-3.0
 49
0.0
 49
-3.0
  0
LTYPE
  2
ACAD_ISO07W100
 70
     0
  3
ISO dot . . . . . . . . . . . . . . . . . . . .
 72
    65
 73
     2
 40
3.0
 49
0.0
 49
-3.0
  0
LTYPE
  2
CENTER
 70
     0
  3
Center ____ _ ____ _ ____ _ ____ _ ____ _ ____
 72
    65
 73
     4
 40
2.0
 49
1.25
 49
-0.25
 49
0.25
 49
-0.25
  0
LTYPE
  2
CENTER2
 70
     0
  3
Center (.5x) ___ _ ___ _ ___ _ ___ _ ___ _ ___
 72
    65
 73
     4
 40
1.125
 49
0.75
 49
-0.125
 49
0.125
 49
-0.125
  0
LTYPE
  2
DASHDOT
 70
     0
  3
Dash dot __ . __ . __ . __ . __ . __ . __ . __
 72
    65
 73
     4
 40
1.0
 49
0.5
 49
-0.25
 49
0.0
 49
-0.25
  0
LTYPE
  2
DASHED2
 70
     0
  3
Dashed (.5x) _ _ _ _ _ _ _ _ _ _ _ _ _ _ _ _ _
 72
    65
 73
     2
 40
0.375
 49
0.25
 49
-0.125
  0
LTYPE
  2
DASHEDX2
 70
     0
  3
Dashed (2x) ____  ____  ____  ____  ____  ___
 72
    65
 73
     2
 40
1.5
 49
1.0
 49
-0.5
  0
LTYPE
  2
HIDDEN
 70
     0
  3
Hidden __ __ __ __ __ __ __ __ __ __ __ __ __ _
 72
    65
 73
     2
 40
0.375
 49
0.25
 49
-0.125
  0
ENDTAB
  0
TABLE
  2
LAYER
 70
     5
  0
LAYER
  2
0
 70
     0
 62
     7
  6
CONTINUOUS
  0
LAYER
  2
ZUWAKU
 70
     0
 62
     1
  6
CONTINUOUS
  0
LAYER
  2
MADOWAKU
 70
     0
 62
     4
  6
CONTINUOUS
  0
LAYER
  2
CENTER
 70
     0
 62
     4
  6
CONTINUOUS
  0
LAYER
  2
SRC
 70
     0
 62
     5
  6
CONTINUOUS
  0
ENDTAB
  0
TABLE
  2
STYLE
 70
     2
  0
STYLE
  2
STANDARD
 70
     0
 40
0.0
 41
1.0
 50
0.0
 71
     0
 42
0.2
  3
txt
  4

  0
STYLE
  2

 70
     1
 40
0.0
 41
1.0
 50
0.0
 71
     0
 42
0.2
  3
ltypeshp.shx
  4

  0
ENDTAB
  0
TABLE
  2
VIEW
 70
     0
  0
ENDTAB
  0
TABLE
  2
UCS
 70
     0
  0
ENDTAB
  0
TABLE
  2
APPID
 70
     1
  0
APPID
  2
ACAD
 70
     0
  0
ENDTAB
  0
TABLE
  2
DIMSTYLE
 70
     1
  0
DIMSTYLE
  2
STANDARD
 70
     0
  3

  4

  5

  6

  7

 40
1.0
 41
0.18
 42
0.0625
 43
0.38
 44
0.18
 45
0.0
 46
0.0
 47
0.0
 48
0.0
140
0.18
141
0.09
142
0.0
143
25.399999999999999
144
1.0
145
0.0
146
1.0
147
0.09
 71
     0
 72
     0
 73
     1
 74
     1
 75
     0
 76
     0
 77
     0
 78
     0
170
     0
171
     2
172
     0
173
     0
174
     0
175
     0
176
     0
177
     0
178
     0
  0
ENDTAB
  0
ENDSEC
  0
SECTION
  2
BLOCKS
  0
BLOCK
  8
0
  2
$MODEL_SPACE
 70
     0
 10
0.0
 20
0.0
 30
0.0
  3
$MODEL_SPACE
  1

  0
ENDBLK
  5
21
  8
0
  0
BLOCK
 67
     1
  8
0
  2
$PAPER_SPACE
 70
     0
 10
0.0
 20
0.0
 30
0.0
  3
$PAPER_SPACE
  1

  0
ENDBLK
  5
5B
 67
     1
  8
0
  0
ENDSEC
  0
SECTION
  2
ENTITIES
  0
LINE
  5
A0
  8
ZUWAKU
 62
     4
 10
0.0
 20
0.0
 30
0.0
 11
84100.0
 21
0.0
 31
0.0
  0
LINE
  5
A1
  8
ZUWAKU
 62
     4
 10
0.0
 20
0.0
 30
0.0
 11
0.0
 21
59400.0
 31
0.0
  0
LINE
  5
A2
  8
ZUWAKU
 62
     4
 10
84100.000000000015
 20
-0.0000000000205979
 30
0.0
 11
84100.000000000015
 21
59399.999999999971
 31
0.0
  0
LINE
  5
A3
  8
ZUWAKU
 62
     4
 10
0.0000000000145519
 20
59399.999999999971
 30
0.0
 11
84100.000000000015
 21
59399.999999999971
 31
0.0
  0
LINE
  5
B1
  8
ZUWAKU
  6
CONTINUOUS
 62
     5
 10
1800.0
 20
57899.999999999993
 30
0.0
 11
82300.000000000015
 21
57899.999999999993
 31
0.0
  0
LINE
  5
B2
  8
ZUWAKU
  6
CONTINUOUS
 62
     5
 10
1800.0
 20
1500.0
 30
0.0
 11
82300.000000000015
 21
1500.0
 31
0.0
  0
LINE
  5
CB
  8
ZUWAKU
  6
CONTINUOUS
 62
     5
 10
1800.0
 20
1500.0
 30
0.0
 11
1800.0
 21
57900.0
 31
0.0
  0
LINE
  5
CD
  8
ZUWAKU
  6
CONTINUOUS
 62
     5
 10
82300.000000000015
 20
1500.0
 30
0.0
 11
82300.000000000015
 21
57899.999999999978
 31
0.0
  0
LINE
  5
D8
  8
MADOWAKU
  6
CENTER
 10
4801.6512173207602
 20
44944.414465928006
 30
0.0
 11
79801.651217320774
 21
44944.414465928006
 31
0.0
  0
LINE
  5
DA
  8
MADOWAKU
  6
CENTER
 10
4801.6512173207602
 20
4944.4144659280137
 30
0.0
 11
4801.6512173207602
 21
54944.414465928006
 31
0.0
  0
LINE
  5
DB
  8
MADOWAKU
  6
CENTER
 10
4801.6512173207602
 20
54944.414465928006
 30
0.0
 11
79801.651217320774
 21
54944.414465928006
 31
0.0
  0
LINE
  5
DD
  8
MADOWAKU
  6
CENTER
 10
14801.651217320759
 20
4944.4144659280137
 30
0.0
 11
14801.651217320759
 21
54944.414465928006
 31
0.0
  0
LINE
  5
F0
  8
CENTER
  6
CENTER
 10
9801.6512173207593
 20
54944.414465928006
 30
0.0
 11
9801.6512173207593
 21
4944.4144659280137
 31
0.0
  0
LINE
  5
F1
  8
CENTER
  6
CENTER
 10
4801.6512173207602
 20
49944.414465928006
 30
0.0
 11
79801.651217320774
 21
49944.414465928006
 31
0.0
  0
LINE
  5
198
  8
CENTER
  6
CENTER
 10
4801.6512173207602
 20
52444.414465928006
 30
0.0
 11
79801.651217320774
 21
52444.414465928021
 31
0.0
  0
LINE
  5
199
  8
CENTER
  6
CENTER
 10
4801.6512173207602
 20
47444.414465928006
 30
0.0
 11
79801.651217320774
 21
47444.414465928006
 31
0.0
  0
LINE
  5
1C7
  8
CENTER
  6
CENTER
 10
19801.651217320759
 20
54944.414465928006
 30
0.0
 11
19801.651217320759
 21
4944.4144659280137
 31
0.0
  0
LINE
  5
1C8
  8
MADOWAKU
  6
CENTER
 10
24801.651217320748
 20
4944.4144659280137
 30
0.0
 11
24801.651217320759
 21
54944.414465928006
 31
0.0
  0
LINE
  5
1C9
  8
MADOWAKU
  6
CENTER
 10
44801.651217320759
 20
4944.4144659280137
 30
0.0
 11
44801.651217320759
 21
54944.414465928006
 31
0.0
  0
LINE
  5
1CA
  8
CENTER
  6
CENTER
 10
39801.651217320759
 20
54944.414465928006
 30
0.0
 11
39801.651217320759
 21
4944.4144659280137
 31
0.0
  0
LINE
  5
1CB
  8
CENTER
  6
CENTER
 10
29801.651217320759
 20
54944.414465928006
 30
0.0
 11
29801.651217320759
 21
4944.4144659280137
 31
0.0
  0
LINE
  5
1CC
  8
MADOWAKU
  6
CENTER
 10
34801.651217320759
 20
4944.4144659280137
 30
0.0
 11
34801.651217320759
 21
54944.414465928006
 31
0.0
  0
LINE
  5
1CD
  8
MADOWAKU
  6
CENTER
 10
74801.651217320759
 20
4944.4144659280137
 30
0.0
 11
74801.651217320759
 21
54944.414465928006
 31
0.0
  0
LINE
  5
1CE
  8
CENTER
  6
CENTER
 10
69801.651217320759
 20
54944.414465928006
 30
0.0
 11
69801.651217320774
 21
4944.4144659280137
 31
0.0
  0
LINE
  5
1D1
  8
MADOWAKU
  6
CENTER
 10
64801.651217320767
 20
4944.4144659280137
 30
0.0
 11
64801.651217320759
 21
54944.414465928006
 31
0.0
  0
LINE
  5
1D2
  8
CENTER
  6
CENTER
 10
59801.651217320759
 20
54944.414465928006
 30
0.0
 11
59801.651217320759
 21
4944.4144659280137
 31
0.0
  0
LINE
  5
1D3
  8
CENTER
  6
CENTER
 10
49801.651217320759
 20
54944.414465928006
 30
0.0
 11
49801.651217320759
 21
4944.4144659280137
 31
0.0
  0
LINE
  5
1D4
  8
MADOWAKU
  6
CENTER
 10
54801.651217320759
 20
4944.4144659280137
 30
0.0
 11
54801.651217320759
 21
54944.414465928006
 31
0.0
  0
LINE
  5
1D6
  8
MADOWAKU
  6
CENTER
 10
79801.651217320759
 20
4944.4144659280137
 30
0.0
 11
79801.651217320759
 21
54944.414465928006
 31
0.0
  0
LINE
  5
1F4
  8
CENTER
  6
CENTER
 10
4801.6512173207602
 20
39944.414465928006
 30
0.0
 11
79801.651217320774
 21
39944.414465928021
 31
0.0
  0
LINE
  5
1F5
  8
CENTER
  6
CENTER
 10
4801.6512173207602
 20
44944.414465928006
 30
0.0
 11
79801.651217320774
 21
44944.414465928021
 31
0.0
  0
LINE
  5
1FC
  8
CENTER
  6
CENTER
 10
4801.6512173207602
 20
42444.414465928006
 30
0.0
 11
79801.651217320774
 21
42444.414465928006
 31
0.0
  0
LINE
  5
1FD
  8
MADOWAKU
  6
CENTER
 10
4801.6512173207602
 20
37444.414465928006
 30
0.0
 11
79801.651217320774
 21
37444.414465928006
 31
0.0
  0
LINE
  5
1FE
  8
MADOWAKU
  6
CENTER
 10
4801.6512173207602
 20
29944.41446592801
 30
0.0
 11
79801.651217320774
 21
29944.41446592801
 31
0.0
  0
LINE
  5
1FF
  8
CENTER
  6
CENTER
 10
4801.6512173207602
 20
34944.414465928006
 30
0.0
 11
79801.651217320774
 21
34944.414465928021
 31
0.0
  0
LINE
  5
205
  8
CENTER
  6
CENTER
 10
4801.6512173207602
 20
32444.41446592801
 30
0.0
 11
79801.651217320774
 21
32444.414465928021
 31
0.0
  0
LINE
  5
206
  8
CENTER
  6
CENTER
 10
4801.6512173207602
 20
19944.41446592801
 30
0.0
 11
79801.651217320774
 21
19944.414465928021
 31
0.0
  0
LINE
  5
20C
  8
CENTER
  6
CENTER
 10
4801.6512173207602
 20
22444.41446592801
 30
0.0
 11
79801.651217320774
 21
22444.414465928021
 31
0.0
  0
LINE
  5
20D
  8
MADOWAKU
  6
CENTER
 10
4801.6512173207602
 20
17444.41446592801
 30
0.0
 11
79801.651217320774
 21
17444.41446592801
 31
0.0
  0
LINE
  5
20E
  8
MADOWAKU
  6
CENTER
 10
4801.6512173207602
 20
24944.41446592801
 30
0.0
 11
79801.651217320774
 21
24944.41446592801
 31
0.0
  0
LINE
  5
212
  8
CENTER
  6
CENTER
 10
4801.6512173207602
 20
27444.41446592801
 30
0.0
 11
79801.651217320774
 21
27444.414465928021
 31
0.0
  0
LINE
  5
213
  8
MADOWAKU
  6
CENTER
 10
4801.6512173207602
 20
12444.41446592801
 30
0.0
 11
79801.651217320774
 21
12444.41446592801
 31
0.0
  0
LINE
  5
217
  8
CENTER
  6
CENTER
 10
4801.6512173207602
 20
14944.41446592801
 30
0.0
 11
79801.651217320774
 21
14944.414465928019
 31
0.0
  0
LINE
  5
218
  8
CENTER
  6
CENTER
 10
4801.6512173207602
 20
7444.4144659280137
 30
0.0
 11
79801.651217320774
 21
7444.4144659280209
 31
0.0
  0
LINE
  5
21C
  8
MADOWAKU
  6
CENTER
 10
4801.6512173207602
 20
4944.4144659280137
 30
0.0
 11
79801.651217320774
 21
4944.4144659280137
 31
0.0
  0
LINE
  5
21D
  8
MADOWAKU
  6
CENTER
 10
4801.6512173207602
 20
9944.4144659280137
 30
0.0
 11
79801.651217320774
 21
9944.4144659280137
 31
0.0
  0
VIEWPORT
  5
B9
 67
     1
  8
0
 10
437.01422611303542
 20
279.99268913269049
 30
0.0
 40
1047.5685496426829
 41
598.73296500428091
 68
     1
 69
     1
1001
ACAD
1000
MVIEW
1002
{
1070
    16
1010
0.0
1020
0.0
1030
0.0
1010
0.0
1020
0.0
1030
1.0
1040
0.0
1040
598.73296500428091
1040
437.01422611303542
1040
279.99268913269049
1040
50.0
1040
0.0
1040
0.0
1070
     0
1070
  1000
1070
     1
1070
     1
1070
     0
1070
     0
1070
     0
1070
     0
1040
0.0
1040
0.0
1040
0.0
1040
0.5
1040
0.5
1040
0.5
1040
0.5
1070
     0
1002
{
1002
}
1002
}
  0
VIEWPORT
  5
24F
 67
     1
  8
SRC
  6
CONTINUOUS
 10
414.33402478180051
 20
279.56502255904388
 30
0.0
 40
840.45123782626888
 41
593.60097002381815
 68
     2
 69
     2
1001
ACAD
1000
MVIEW
1002
{
1070
    16
1010
0.0
1020
0.0
1030
0.0
1010
0.0
1020
0.0
1030
1.0
1040
0.0
1040
59917.94259208018
1040
42050.000195810549
1040
29700.000138301399
1040
50.0
1040
0.0
1040
0.0
1070
     0
1070
  1000
1070
     1
1070
     2
1070
     0
1070
     0
1070
     0
1070
     0
1040
0.0
1040
0.0
1040
0.0
1040
0.5
1040
0.5
1040
0.5
1040
0.5
1070
     0
1002
{
1002
}
1002
}
  0
ENDSEC
  0
EOF
