  0
SECTION
  2
HEADER
  9
$ACADVER
  1
AC1009
  9
$INSBASE
 10
0.0
 20
0.0
 30
0.0
  9
$EXTMIN
 10
-1485.690067258927
 20
7.7400150299072301
 30
0.0
  9
$EXTMAX
 10
3990.7398071289081
 20
2747.7405014038059
 30
0.0
  9
$LIMMIN
 10
0.0
 20
0.0
  9
$LIMMAX
 10
12.0
 20
9.0
  9
$ORTHOMODE
 70
     0
  9
$REGENMODE
 70
     1
  9
$FILLMODE
 70
     1
  9
$QTEXTMODE
 70
     0
  9
$MIRRTEXT
 70
     0
  9
$DRAGMODE
 70
     2
  9
$LTSCALE
 40
1.0
  9
$OSMODE
 70
    45
  9
$ATTMODE
 70
     1
  9
$TEXTSIZE
 40
0.0
  9
$TRACEWID
 40
0.05
  9
$TEXTSTYLE
  7
STANDARD
  9
$CLAYER
  8
2
  9
$CELTYPE
  6
CONTINUOUS
  9
$CECOLOR
 62
   256
  9
$DIMSCALE
 40
10.0
  9
$DIMASZ
 40
3.0
  9
$DIMEXO
 40
20.0
  9
$DIMDLI
 40
10.0
  9
$DIMRND
 40
0.0
  9
$DIMDLE
 40
0.0
  9
$DIMEXE
 40
1.0
  9
$DIMTP
 40
0.0
  9
$DIMTM
 40
0.0
  9
$DIMTXT
 40
18.0
  9
$DIMCEN
 40
0.09
  9
$DIMTSZ
 40
0.0
  9
$DIMTOL
 70
     0
  9
$DIMLIM
 70
     0
  9
$DIMTIH
 70
     1
  9
$DIMTOH
 70
     1
  9
$DIMSE1
 70
     0
  9
$DIMSE2
 70
     0
  9
$DIMTAD
 70
     1
  9
$DIMZIN
 70
     0
  9
$DIMBLK
  1
OPEN30
  9
$DIMASO
 70
     1
  9
$DIMSHO
 70
     1
  9
$DIMPOST
  1

  9
$DIMAPOST
  1

  9
$DIMALT
 70
     0
  9
$DIMALTD
 70
     2
  9
$DIMALTF
 40
25.399999999999999
  9
$DIMLFAC
 40
1.0
  9
$DIMTOFL
 70
     0
  9
$DIMTVP
 40
0.0
  9
$DIMTIX
 70
     0
  9
$DIMSOXD
 70
     0
  9
$DIMSAH
 70
     0
  9
$DIMBLK1
  1

  9
$DIMBLK2
  1

  9
$DIMSTYLE
  2
S1
  9
$DIMCLRD
 70
     0
  9
$DIMCLRE
 70
     0
  9
$DIMCLRT
 70
     0
  9
$DIMTFAC
 40
1.0
  9
$DIMGAP
 40
1.0
  9
$LUNITS
 70
     2
  9
$LUPREC
 70
     4
  9
$SKETCHINC
 40
0.1
  9
$FILLETRAD
 40
0.0
  9
$AUNITS
 70
     0
  9
$AUPREC
 70
     0
  9
$MENU
  1
.
  9
$ELEVATION
 40
0.0
  9
$PELEVATION
 40
0.0
  9
$THICKNESS
 40
0.0
  9
$LIMCHECK
 70
     0
  9
$BLIPMODE
 70
     0
  9
$CHAMFERA
 40
0.0
  9
$CHAMFERB
 40
0.0
  9
$SKPOLY
 70
     0
  9
$TDCREATE
 40
2455053.8955336688
  9
$TDUPDATE
 40
2455062.6274242252
  9
$TDINDWG
 40
0.1114530903
  9
$TDUSRTIMER
 40
0.1114530903
  9
$USRTIMER
 70
     1
  9
$ANGBASE
 50
0.0
  9
$ANGDIR
 70
     0
  9
$PDMODE
 70
     3
  9
$PDSIZE
 40
0.0
  9
$PLINEWID
 40
0.0
  9
$COORDS
 70
     1
  9
$SPLFRAME
 70
     0
  9
$SPLINETYPE
 70
     6
  9
$SPLINESEGS
 70
     8
  9
$ATTDIA
 70
     0
  9
$ATTREQ
 70
     1
  9
$HANDLING
 70
     1
  9
$HANDSEED
  5
1FE9
  9
$SURFTAB1
 70
     6
  9
$SURFTAB2
 70
     6
  9
$SURFTYPE
 70
     6
  9
$SURFU
 70
     6
  9
$SURFV
 70
     6
  9
$UCSNAME
  2

  9
$UCSORG
 10
0.0
 20
0.0
 30
0.0
  9
$UCSXDIR
 10
1.0
 20
0.0
 30
0.0
  9
$UCSYDIR
 10
0.0
 20
1.0
 30
0.0
  9
$PUCSNAME
  2

  9
$PUCSORG
 10
0.0
 20
0.0
 30
0.0
  9
$PUCSXDIR
 10
1.0
 20
0.0
 30
0.0
  9
$PUCSYDIR
 10
0.0
 20
1.0
 30
0.0
  9
$USERI1
 70
     0
  9
$USERI2
 70
     0
  9
$USERI3
 70
     0
  9
$USERI4
 70
     0
  9
$USERI5
 70
     0
  9
$USERR1
 40
0.0
  9
$USERR2
 40
0.0
  9
$USERR3
 40
0.0
  9
$USERR4
 40
0.0
  9
$USERR5
 40
0.0
  9
$WORLDVIEW
 70
     1
  9
$SHADEDGE
 70
     3
  9
$SHADEDIF
 70
    70
  9
$TILEMODE
 70
     1
  9
$MAXACTVP
 70
    64
  9
$PLIMCHECK
 70
     0
  9
$PEXTMIN
 10
1.0000000000000000E+020
 20
1.0000000000000000E+020
 30
1.0000000000000000E+020
  9
$PEXTMAX
 10
-1.0000000000000000E+020
 20
-1.0000000000000000E+020
 30
-1.0000000000000000E+020
  9
$PLIMMIN
 10
-5.873748779296875
 20
-5.8737497329711914
  9
$PLIMMAX
 10
414.07290649414062
 20
291.13690090179438
  9
$UNITMODE
 70
     0
  9
$VISRETAIN
 70
     1
  9
$PLINEGEN
 70
     0
  9
$PSLTSCALE
 70
     1
  0
ENDSEC
  0
SECTION
  2
TABLES
  0
TABLE
  2
VPORT
 70
     3
  0
VPORT
  2
*ACTIVE
 70
     0
 10
0.0
 20
0.0
 11
1.0
 21
1.0
 12
1259.725341382542
 22
1670.1361128947881
 13
0.0
 23
0.0
 14
1.0
 24
1.0
 15
0.0
 25
0.0
 16
0.0
 26
0.0
 36
1.0
 17
0.0
 27
0.0
 37
0.0
 40
6409.208706247111
 41
1.7128851540616239
 42
50.0
 43
0.0
 44
0.0
 50
0.0
 51
0.0
 71
     0
 72
   100
 73
     1
 74
     1
 75
     0
 76
     0
 77
     0
 78
     0
  0
ENDTAB
  0
TABLE
  2
LTYPE
 70
     4
  0
LTYPE
  2
CONTINUOUS
 70
     0
  3
CONTINUOUS
 72
    65
 73
     0
 40
0.0
  0
LTYPE
  2
DASHED1
 70
     0
  3
DASHED1
 72
    65
 73
     2
 40
2.5
 49
1.25
 49
-1.25
  0
LTYPE
  2
DASHED2
 70
     0
  3
DASHED2
 72
    65
 73
     4
 40
10.0
 49
6.25
 49
-1.25
 49
1.25
 49
-1.25
  0
LTYPE
  2
CENTER
 70
     0
  3
CENTER
 72
    65
 73
     2
 40
2.5
 49
0.625
 49
-1.875
  0
ENDTAB
  0
TABLE
  2
LAYER
 70
    11
  0
LAYER
  2
0
 70
     0
 62
     7
  6
CONTINUOUS
  0
LAYER
  2
CENTERLINE
 70
     0
 62
     9
  6
CONTINUOUS
  0
LAYER
  2
7
 70
     0
 62
     7
  6
CONTINUOUS
  0
LAYER
  2
1
 70
     0
 62
     3
  6
CONTINUOUS
  0
LAYER
  2
5
 70
     0
 62
     7
  6
CONTINUOUS
  0
LAYER
  2
6
 70
     0
 62
     7
  6
CONTINUOUS
  0
LAYER
  2
2
 70
     0
 62
     7
  6
CONTINUOUS
  0
LAYER
  2
3
 70
     0
 62
     7
  6
CONTINUOUS
  0
LAYER
  2
4
 70
     0
 62
     7
  6
CONTINUOUS
  0
LAYER
  2
詳細
 70
     0
 62
     5
  6
CONTINUOUS
  0
LAYER
  2
_0-0_
 70
     0
 62
     7
  6
CONTINUOUS
  0
ENDTAB
  0
TABLE
  2
STYLE
 70
     2
  0
STYLE
  2
STANDARD
 70
     0
 40
0.0
 41
1.0
 50
0.0
 71
     0
 42
0.0
  3
TXT
  4
BIGFONT
  0
STYLE
  2
テキスト
 70
     0
 40
0.0
 41
1.0
 50
0.0
 71
     0
 42
1500.0
  3
txt
  4

  0
ENDTAB
  0
TABLE
  2
VIEW
 70
     0
  0
ENDTAB
  0
TABLE
  2
UCS
 70
     0
  0
ENDTAB
  0
TABLE
  2
APPID
 70
     1
  0
APPID
  2
ACAD
 70
     0
  0
ENDTAB
  0
TABLE
  2
DIMSTYLE
 70
     3
  0
DIMSTYLE
  2
STANDARD
 70
     0
  3

  4

  5

  6

  7

 40
1.0
 41
0.18
 42
0.0625
 43
0.38
 44
0.18
 45
0.0
 46
0.0
 47
0.0
 48
0.0
140
0.18
141
0.09
142
0.0
143
25.399999999999999
144
1.0
145
0.0
146
1.0
147
0.09
 71
     0
 72
     0
 73
     1
 74
     1
 75
     0
 76
     0
 77
     0
 78
     0
170
     0
171
     2
172
     0
173
     0
174
     0
175
     0
176
     0
177
     0
178
     0
  0
DIMSTYLE
  2
S1
 70
     0
  3

  4

  5
OPEN30
  6

  7

 40
10.0
 41
3.0
 42
20.0
 43
10.0
 44
1.0
 45
0.0
 46
0.0
 47
0.0
 48
0.0
140
18.0
141
0.09
142
0.0
143
25.399999999999999
144
1.0
145
0.0
146
1.0
147
1.0
 71
     0
 72
     0
 73
     1
 74
     1
 75
     0
 76
     0
 77
     1
 78
     0
170
     0
171
     2
172
     0
173
     0
174
     0
175
     0
176
     0
177
     0
178
     0
  0
DIMSTYLE
  2
30_矢印
 70
     0
  3

  4

  5
OPEN30
  6

  7

 40
1.0
 41
400.0
 42
300.0
 43
250.0
 44
100.0
 45
0.0
 46
0.0
 47
0.0
 48
0.0
140
600.0
141
120.0
142
0.0
143
25.399999999999999
144
1.0
145
0.0
146
1.0
147
100.0
 71
     0
 72
     0
 73
     0
 74
     0
 75
     0
 76
     0
 77
     1
 78
     0
170
     0
171
     2
172
     1
173
     0
174
     0
175
     0
176
     0
177
     0
178
     0
  0
ENDTAB
  0
ENDSEC
  0
SECTION
  2
BLOCKS
  0
BLOCK
  8
0
  2
$MODEL_SPACE
 70
     0
 10
0.0
 20
0.0
 30
0.0
  3
$MODEL_SPACE
  1

  0
ENDBLK
  5
22
  8
0
  0
BLOCK
 67
     1
  8
0
  2
$PAPER_SPACE
 70
     0
 10
0.0
 20
0.0
 30
0.0
  3
$PAPER_SPACE
  1

  0
ENDBLK
  5
1E
 67
     1
  8
0
  0
BLOCK
  8
0
  2
_OPEN30
 70
     0
 10
0.0
 20
0.0
 30
0.0
  3
_OPEN30
  1

  0
LINE
  5
1186
  8
0
  6
BYBLOCK
 62
     0
 10
-1.0
 20
0.26794919
 30
0.0
 11
0.0
 21
0.0
 31
0.0
  0
LINE
  5
1187
  8
0
  6
BYBLOCK
 62
     0
 10
0.0
 20
0.0
 30
0.0
 11
-1.0
 21
-0.26794919
 31
0.0
  0
LINE
  5
1188
  8
0
  6
BYBLOCK
 62
     0
 10
0.0
 20
0.0
 30
0.0
 11
-1.0
 21
0.0
 31
0.0
  0
ENDBLK
  5
118A
  8
0
  0
BLOCK
  8
0
  2
CAR1
 70
     0
 10
0.0
 20
0.0
 30
0.0
  3
CAR1
  1

  0
LINE
  5
19AD
  8
4
  6
DASHED1
 10
-960.69431876899046
 20
2328.4619203916259
 30
0.0
 11
-371.67412833930013
 21
2328.4619203916259
 31
0.0
  0
POLYLINE
  5
19AE
  8
4
  6
DASHED1
 66
     1
 10
0.0
 20
0.0
 30
0.0
  0
VERTEX
  5
1D80
  8
4
  6
DASHED1
 10
-1175.944794843211
 20
1945.3311952939639
 30
0.0
  0
VERTEX
  5
1D81
  8
4
  6
DASHED1
 10
-1227.1481700873439
 20
1945.006512676787
 30
0.0
  0
VERTEX
  5
1D82
  8
4
  6
DASHED1
 10
-1281.1574718451659
 20
1944.9416567197429
 30
0.0
  0
VERTEX
  5
1D83
  8
4
  6
DASHED1
 10
-1318.4597179389159
 20
1945.5249575009941
 30
0.0
  0
VERTEX
  5
1D84
  8
4
  6
DASHED1
 10
-1337.0371227240639
 20
1950.644952618185
 30
0.0
  0
VERTEX
  5
1D85
  8
4
  6
DASHED1
 10
-1348.727106854931
 20
1960.559857403347
 30
0.0
  0
VERTEX
  5
1D86
  8
4
  6
DASHED1
 10
-1354.80624503852
 20
1970.215338360375
 30
0.0
  0
VERTEX
  5
1D87
  8
4
  6
DASHED1
 10
-1356.5490978217249
 20
1974.5574648252141
 30
0.0
  0
VERTEX
  5
1D88
  8
4
  6
DASHED1
 10
-1354.80624503852
 20
1970.215338360375
 30
0.0
  0
SEQEND
  5
1D89
  8
4
  6
DASHED1
  0
POLYLINE
  5
19AF
  8
4
  6
DASHED1
 66
     1
 10
0.0
 20
0.0
 30
0.0
  0
VERTEX
  5
1D8A
  8
4
  6
DASHED1
 10
-1115.6863597846079
 20
1956.0235658994361
 30
0.0
  0
VERTEX
  5
1D8B
  8
4
  6
DASHED1
 10
-1124.27353019477
 20
1950.0181459775661
 30
0.0
  0
VERTEX
  5
1D8C
  8
4
  6
DASHED1
 10
-1135.4114330268001
 20
1946.604950176787
 30
0.0
  0
VERTEX
  5
1D8D
  8
4
  6
DASHED1
 10
-1147.0591197943741
 20
1945.5249575009941
 30
0.0
  0
VERTEX
  5
1D8E
  8
4
  6
DASHED1
 10
-1135.4114330268001
 20
1946.604950176787
 30
0.0
  0
SEQEND
  5
1D8F
  8
4
  6
DASHED1
  0
POLYLINE
  5
19B0
  8
4
  6
DASHED1
 66
     1
 10
0.0
 20
0.0
 30
0.0
  0
VERTEX
  5
1D90
  8
4
  6
DASHED1
 10
-1175.944794843211
 20
2429.5747743955371
 30
0.0
  0
VERTEX
  5
1D91
  8
4
  6
DASHED1
 10
-1227.1481700873439
 20
2429.8990541806861
 30
0.0
  0
VERTEX
  5
1D92
  8
4
  6
DASHED1
 10
-1281.1574718451659
 20
2429.9635073056861
 30
0.0
  0
VERTEX
  5
1D93
  8
4
  6
DASHED1
 10
-1318.4597179389159
 20
2429.3802065244358
 30
0.0
  0
VERTEX
  5
1D94
  8
4
  6
DASHED1
 10
-1337.0371227240639
 20
2424.261017071316
 30
0.0
  0
VERTEX
  5
1D95
  8
4
  6
DASHED1
 10
-1348.727106854931
 20
2414.3465151181858
 30
0.0
  0
VERTEX
  5
1D96
  8
4
  6
DASHED1
 10
-1354.80624503852
 20
2404.6906313291261
 30
0.0
  0
VERTEX
  5
1D97
  8
4
  6
DASHED1
 10
-1356.5490978217249
 20
2400.3493105283469
 30
0.0
  0
VERTEX
  5
1D98
  8
4
  6
DASHED1
 10
-1354.80624503852
 20
2404.6906313291261
 30
0.0
  0
SEQEND
  5
1D99
  8
4
  6
DASHED1
  0
POLYLINE
  5
19B1
  8
4
  6
DASHED1
 66
     1
 10
0.0
 20
0.0
 30
0.0
  0
VERTEX
  5
1D9A
  8
4
  6
DASHED1
 10
-1115.6863597846079
 20
2418.8820009580372
 30
0.0
  0
VERTEX
  5
1D9B
  8
4
  6
DASHED1
 10
-1124.27353019477
 20
2424.8874208799052
 30
0.0
  0
VERTEX
  5
1D9C
  8
4
  6
DASHED1
 10
-1135.4114330268001
 20
2428.300213848654
 30
0.0
  0
VERTEX
  5
1D9D
  8
4
  6
DASHED1
 10
-1147.0591197943741
 20
2429.3802065244358
 30
0.0
  0
VERTEX
  5
1D9E
  8
4
  6
DASHED1
 10
-1135.4114330268001
 20
2428.300213848654
 30
0.0
  0
SEQEND
  5
1D9F
  8
4
  6
DASHED1
  0
POLYLINE
  5
19B2
  8
4
  6
DASHED1
 66
     1
 10
0.0
 20
0.0
 30
0.0
  0
VERTEX
  5
1DA0
  8
4
  6
DASHED1
 10
-478.09872550726988
 20
1945.3311952939639
 30
0.0
  0
VERTEX
  5
1DA1
  8
4
  6
DASHED1
 10
-529.30189933540146
 20
1945.006512676787
 30
0.0
  0
VERTEX
  5
1DA2
  8
4
  6
DASHED1
 10
-583.3107982611815
 20
1944.9416567197429
 30
0.0
  0
VERTEX
  5
1DA3
  8
4
  6
DASHED1
 10
-620.61344718696103
 20
1945.5249575009941
 30
0.0
  0
VERTEX
  5
1DA4
  8
4
  6
DASHED1
 10
-638.55276603460834
 20
1949.3486391416261
 30
0.0
  0
VERTEX
  5
1DA5
  8
4
  6
DASHED1
 10
-648.84029044868146
 20
1956.4122988095969
 30
0.0
  0
VERTEX
  5
1DA6
  8
4
  6
DASHED1
 10
-653.51636466743162
 20
1963.2161318174039
 30
0.0
  0
VERTEX
  5
1DA7
  8
4
  6
DASHED1
 10
-654.62173576118153
 20
1966.261944805686
 30
0.0
  0
VERTEX
  5
1DA8
  8
4
  6
DASHED1
 10
-653.51636466743162
 20
1963.2161318174039
 30
0.0
  0
SEQEND
  5
1DA9
  8
4
  6
DASHED1
  0
POLYLINE
  5
19B3
  8
4
  6
DASHED1
 66
     1
 10
0.0
 20
0.0
 30
0.0
  0
VERTEX
  5
1DAA
  8
4
  6
DASHED1
 10
-417.83988761665148
 20
1956.0235658994361
 30
0.0
  0
VERTEX
  5
1DAB
  8
4
  6
DASHED1
 10
-426.42705802680001
 20
1950.0181459775661
 30
0.0
  0
VERTEX
  5
1DAC
  8
4
  6
DASHED1
 10
-437.5649608588289
 20
1946.604950176787
 30
0.0
  0
VERTEX
  5
1DAD
  8
4
  6
DASHED1
 10
-449.21284904243169
 20
1945.5249575009941
 30
0.0
  0
VERTEX
  5
1DAE
  8
4
  6
DASHED1
 10
-437.5649608588289
 20
1946.604950176787
 30
0.0
  0
SEQEND
  5
1DAF
  8
4
  6
DASHED1
  0
POLYLINE
  5
19B4
  8
4
  6
DASHED1
 66
     1
 10
0.0
 20
0.0
 30
0.0
  0
VERTEX
  5
1DB0
  8
4
  6
DASHED1
 10
-478.09872550726988
 20
2429.5747743955371
 30
0.0
  0
VERTEX
  5
1DB1
  8
4
  6
DASHED1
 10
-529.30189933540146
 20
2429.8990541806861
 30
0.0
  0
VERTEX
  5
1DB2
  8
4
  6
DASHED1
 10
-583.3107982611815
 20
2429.9635073056861
 30
0.0
  0
VERTEX
  5
1DB3
  8
4
  6
DASHED1
 10
-620.61344718696103
 20
2429.3802065244358
 30
0.0
  0
VERTEX
  5
1DB4
  8
4
  6
DASHED1
 10
-637.91508292913829
 20
2425.7732485166262
 30
0.0
  0
VERTEX
  5
1DB5
  8
4
  6
DASHED1
 10
-646.79994621038816
 20
2419.1845278135079
 30
0.0
  0
VERTEX
  5
1DB6
  8
4
  6
DASHED1
 10
-650.07335929632882
 20
2412.8560366025658
 30
0.0
  0
VERTEX
  5
1DB7
  8
4
  6
DASHED1
 10
-650.54064445257882
 20
2410.0265444150659
 30
0.0
  0
VERTEX
  5
1DB8
  8
4
  6
DASHED1
 10
-650.07335929632882
 20
2412.8560366025658
 30
0.0
  0
SEQEND
  5
1DB9
  8
4
  6
DASHED1
  0
POLYLINE
  5
19B5
  8
4
  6
DASHED1
 66
     1
 10
0.0
 20
0.0
 30
0.0
  0
VERTEX
  5
1DBA
  8
4
  6
DASHED1
 10
-417.83988761665148
 20
2418.8820009580372
 30
0.0
  0
VERTEX
  5
1DBB
  8
4
  6
DASHED1
 10
-426.42705802680001
 20
2424.8874208799052
 30
0.0
  0
VERTEX
  5
1DBC
  8
4
  6
DASHED1
 10
-437.5649608588289
 20
2428.300213848654
 30
0.0
  0
VERTEX
  5
1DBD
  8
4
  6
DASHED1
 10
-449.21284904243169
 20
2429.3802065244358
 30
0.0
  0
VERTEX
  5
1DBE
  8
4
  6
DASHED1
 10
-437.5649608588289
 20
2428.300213848654
 30
0.0
  0
SEQEND
  5
1DBF
  8
4
  6
DASHED1
  0
POLYLINE
  5
19B6
  8
4
  6
DASHED1
 66
     1
 10
0.0
 20
0.0
 30
0.0
  0
VERTEX
  5
1DC0
  8
4
  6
DASHED1
 10
-1011.579255292431
 20
2349.5876406064649
 30
0.0
  0
VERTEX
  5
1DC1
  8
4
  6
DASHED1
 10
-1046.7352123236819
 20
2359.912628399436
 30
0.0
  0
VERTEX
  5
1DC2
  8
4
  6
DASHED1
 10
-1080.360810468211
 20
2369.719574200215
 30
0.0
  0
VERTEX
  5
1DC3
  8
4
  6
DASHED1
 10
-1095.3667064643
 20
2374.0834535947579
 30
0.0
  0
VERTEX
  5
1DC4
  8
4
  6
DASHED1
 10
-1103.860419843211
 20
2353.959576641626
 30
0.0
  0
VERTEX
  5
1DC5
  8
4
  6
DASHED1
 10
-1111.0316356635201
 20
2330.5143495908469
 30
0.0
  0
VERTEX
  5
1DC6
  8
4
  6
DASHED1
 10
-1116.9593090033579
 20
2304.7040956845972
 30
0.0
  0
VERTEX
  5
1DC7
  8
4
  6
DASHED1
 10
-1121.7232006049319
 20
2277.4843325009938
 30
0.0
  0
VERTEX
  5
1DC8
  8
4
  6
DASHED1
 10
-1125.4030712103879
 20
2249.8113832822578
 30
0.0
  0
VERTEX
  5
1DC9
  8
4
  6
DASHED1
 10
-1128.0782787299311
 20
2222.6407656064648
 30
0.0
  0
VERTEX
  5
1DCA
  8
4
  6
DASHED1
 10
-1129.82938956977
 20
2196.9271913877151
 30
0.0
  0
VERTEX
  5
1DCB
  8
4
  6
DASHED1
 10
-1130.73495597602
 20
2173.6289980283468
 30
0.0
  0
VERTEX
  5
1DCC
  8
4
  6
DASHED1
 10
-1127.7596385932111
 20
2125.0913637509939
 30
0.0
  0
VERTEX
  5
1DCD
  8
4
  6
DASHED1
 10
-1119.1724681830499
 20
2073.5739809384941
 30
0.0
  0
VERTEX
  5
1DCE
  8
4
  6
DASHED1
 10
-1108.5449535346081
 20
2029.5742494931851
 30
0.0
  0
VERTEX
  5
1DCF
  8
4
  6
DASHED1
 10
-1099.447394940858
 20
2003.5879579892869
 30
0.0
  0
VERTEX
  5
1DD0
  8
4
  6
DASHED1
 10
-1108.5449535346081
 20
2029.5742494931851
 30
0.0
  0
SEQEND
  5
1DD1
  8
4
  6
DASHED1
  0
POLYLINE
  5
19B7
  8
4
  6
DASHED1
 66
     1
 10
0.0
 20
0.0
 30
0.0
  0
VERTEX
  5
1DD2
  8
4
  6
DASHED1
 10
-991.96093253852018
 20
2079.557647930686
 30
0.0
  0
VERTEX
  5
1DD3
  8
4
  6
DASHED1
 10
-997.25333976507886
 20
2107.4445009580372
 30
0.0
  0
VERTEX
  5
1DD4
  8
4
  6
DASHED1
 10
-1001.27078361274
 20
2140.7736147275659
 30
0.0
  0
VERTEX
  5
1DD5
  8
4
  6
DASHED1
 10
-1002.864789960388
 20
2175.010711895537
 30
0.0
  0
VERTEX
  5
1DD6
  8
4
  6
DASHED1
 10
-1000.229059979931
 20
2213.1572939267871
 30
0.0
  0
VERTEX
  5
1DD7
  8
4
  6
DASHED1
 10
-994.02302970648975
 20
2255.192413555686
 30
0.0
  0
VERTEX
  5
1DD8
  8
4
  6
DASHED1
 10
-986.79622306585838
 20
2292.0430849424051
 30
0.0
  0
VERTEX
  5
1DD9
  8
4
  6
DASHED1
 10
-981.0993724799315
 20
2314.6375307431858
 30
0.0
  0
VERTEX
  5
1DDA
  8
4
  6
DASHED1
 10
-979.35672111273993
 20
2325.7838930478761
 30
0.0
  0
VERTEX
  5
1DDB
  8
4
  6
DASHED1
 10
-981.43976554632877
 20
2334.3380312314639
 30
0.0
  0
VERTEX
  5
1DDC
  8
4
  6
DASHED1
 10
-986.07313956977009
 20
2340.2991396299039
 30
0.0
  0
VERTEX
  5
1DDD
  8
4
  6
DASHED1
 10
-991.98187980413832
 20
2343.6696352353761
 30
0.0
  0
VERTEX
  5
1DDE
  8
4
  6
DASHED1
 10
-986.07313956977009
 20
2340.2991396299039
 30
0.0
  0
SEQEND
  5
1DDF
  8
4
  6
DASHED1
  0
POLYLINE
  5
19B8
  8
4
  6
DASHED1
 66
     1
 10
0.0
 20
0.0
 30
0.0
  0
VERTEX
  5
1DE0
  8
4
  6
DASHED1
 10
-1084.6755443549309
 20
2007.109112774436
 30
0.0
  0
VERTEX
  5
1DE1
  8
4
  6
DASHED1
 10
-1051.6666820502401
 20
2015.1661562314639
 30
0.0
  0
VERTEX
  5
1DE2
  8
4
  6
DASHED1
 10
-1017.382050702579
 20
2024.0002626767871
 30
0.0
  0
VERTEX
  5
1DE3
  8
4
  6
DASHED1
 10
-998.78369865180014
 20
2029.8538149228759
 30
0.0
  0
VERTEX
  5
1DE4
  8
4
  6
DASHED1
 10
-993.04495353460834
 20
2034.433612286155
 30
0.0
  0
VERTEX
  5
1DE5
  8
4
  6
DASHED1
 10
-987.56079826118162
 20
2041.604828106465
 30
0.0
  0
VERTEX
  5
1DE6
  8
4
  6
DASHED1
 10
-984.62777824165164
 20
2050.8498232236539
 30
0.0
  0
VERTEX
  5
1DE7
  8
4
  6
DASHED1
 10
-986.54082755805007
 20
2061.6505556455372
 30
0.0
  0
VERTEX
  5
1DE8
  8
4
  6
DASHED1
 10
-984.62777824165164
 20
2050.8498232236539
 30
0.0
  0
SEQEND
  5
1DE9
  8
4
  6
DASHED1
  0
POLYLINE
  5
19B9
  8
4
  6
DASHED1
 66
     1
 10
0.0
 20
0.0
 30
0.0
  0
VERTEX
  5
1DEA
  8
4
  6
DASHED1
 10
-1158.4040782904749
 20
2047.553448711936
 30
0.0
  0
VERTEX
  5
1DEB
  8
4
  6
DASHED1
 10
-1163.085389325624
 20
2092.561065899436
 30
0.0
  0
VERTEX
  5
1DEC
  8
4
  6
DASHED1
 10
-1165.535212323681
 20
2142.7200991025661
 30
0.0
  0
VERTEX
  5
1DED
  8
4
  6
DASHED1
 10
-1166.1038097357839
 20
2195.2288515439641
 30
0.0
  0
VERTEX
  5
1DEE
  8
4
  6
DASHED1
 10
-1165.1420482611809
 20
2247.2840151181858
 30
0.0
  0
VERTEX
  5
1DEF
  8
4
  6
DASHED1
 10
-1163.000794599064
 20
2296.0826845517872
 30
0.0
  0
VERTEX
  5
1DF0
  8
4
  6
DASHED1
 10
-1160.0303112006241
 20
2338.8227602353759
 30
0.0
  0
VERTEX
  5
1DF1
  8
4
  6
DASHED1
 10
-1156.5812633490641
 20
2372.7009340635082
 30
0.0
  0
VERTEX
  5
1DF2
  8
4
  6
DASHED1
 10
-1160.0303112006241
 20
2338.8227602353759
 30
0.0
  0
SEQEND
  5
1DF3
  8
4
  6
DASHED1
  0
POLYLINE
  5
19BA
  8
4
  6
DASHED1
 66
     1
 10
0.0
 20
0.0
 30
0.0
  0
VERTEX
  5
1DF4
  8
4
  6
DASHED1
 10
-1393.27791251899
 20
2013.265191876008
 30
0.0
  0
VERTEX
  5
1DF5
  8
4
  6
DASHED1
 10
-1364.0788341498439
 20
2004.476605450214
 30
0.0
  0
VERTEX
  5
1DF6
  8
4
  6
DASHED1
 10
-1324.9642467475051
 20
1997.6481996884929
 30
0.0
  0
VERTEX
  5
1DF7
  8
4
  6
DASHED1
 10
-1279.791871259225
 20
1992.5362612119361
 30
0.0
  0
VERTEX
  5
1DF8
  8
4
  6
DASHED1
 10
-1232.419227216255
 20
1988.899896465846
 30
0.0
  0
VERTEX
  5
1DF9
  8
4
  6
DASHED1
 10
-1186.7050426459459
 20
1986.4933779111541
 30
0.0
  0
VERTEX
  5
1DFA
  8
4
  6
DASHED1
 10
-1146.506434247505
 20
1985.075811993185
 30
0.0
  0
VERTEX
  5
1DFB
  8
4
  6
DASHED1
 10
-1115.681122968211
 20
1984.403485333037
 30
0.0
  0
VERTEX
  5
1DFC
  8
4
  6
DASHED1
 10
-1098.087031171329
 20
1984.2338930478761
 30
0.0
  0
VERTEX
  5
1DFD
  8
4
  6
DASHED1
 10
-1115.681122968211
 20
1984.403485333037
 30
0.0
  0
SEQEND
  5
1DFE
  8
4
  6
DASHED1
  0
POLYLINE
  5
19BB
  8
4
  6
DASHED1
 66
     1
 10
0.0
 20
0.0
 30
0.0
  0
VERTEX
  5
1DFF
  8
4
  6
DASHED1
 10
-1379.6877696967249
 20
2100.8235536924039
 30
0.0
  0
VERTEX
  5
1E00
  8
4
  6
DASHED1
 10
-1350.8740001654751
 20
2095.8658998838159
 30
0.0
  0
VERTEX
  5
1E01
  8
4
  6
DASHED1
 10
-1315.0777416205499
 20
2092.204559551787
 30
0.0
  0
VERTEX
  5
1E02
  8
4
  6
DASHED1
 10
-1276.460047528755
 20
2089.6453676572442
 30
0.0
  0
VERTEX
  5
1E03
  8
4
  6
DASHED1
 10
-1239.1811656928139
 20
2087.992547833037
 30
0.0
  0
VERTEX
  5
1E04
  8
4
  6
DASHED1
 10
-1207.4025524115641
 20
2087.0523378720968
 30
0.0
  0
VERTEX
  5
1E05
  8
4
  6
DASHED1
 10
-1185.2838512396961
 20
2086.6317812314651
 30
0.0
  0
VERTEX
  5
1E06
  8
4
  6
DASHED1
 10
-1176.9863170600049
 20
2086.5342958799051
 30
0.0
  0
VERTEX
  5
1E07
  8
4
  6
DASHED1
 10
-1185.2838512396961
 20
2086.6317812314651
 30
0.0
  0
SEQEND
  5
1E08
  8
4
  6
DASHED1
  0
POLYLINE
  5
19BC
  8
4
  6
DASHED1
 66
     1
 10
0.0
 20
0.0
 30
0.0
  0
VERTEX
  5
1E09
  8
4
  6
DASHED1
 10
-1393.27791251899
 20
2364.406219708037
 30
0.0
  0
VERTEX
  5
1E0A
  8
4
  6
DASHED1
 10
-1364.0788341498439
 20
2373.1944033017871
 30
0.0
  0
VERTEX
  5
1E0B
  8
4
  6
DASHED1
 10
-1324.9642467475051
 20
2380.0228090635078
 30
0.0
  0
VERTEX
  5
1E0C
  8
4
  6
DASHED1
 10
-1279.791871259225
 20
2385.1343447080371
 30
0.0
  0
VERTEX
  5
1E0D
  8
4
  6
DASHED1
 10
-1232.419227216255
 20
2388.771515118186
 30
0.0
  0
VERTEX
  5
1E0E
  8
4
  6
DASHED1
 10
-1186.7050426459459
 20
2391.1768251767871
 30
0.0
  0
VERTEX
  5
1E0F
  8
4
  6
DASHED1
 10
-1146.506434247505
 20
2392.593988262714
 30
0.0
  0
VERTEX
  5
1E10
  8
4
  6
DASHED1
 10
-1115.681122968211
 20
2393.2667177549042
 30
0.0
  0
VERTEX
  5
1E11
  8
4
  6
DASHED1
 10
-1098.087031171329
 20
2393.4367128720969
 30
0.0
  0
VERTEX
  5
1E12
  8
4
  6
DASHED1
 10
-1115.681122968211
 20
2393.2667177549042
 30
0.0
  0
SEQEND
  5
1E13
  8
4
  6
DASHED1
  0
POLYLINE
  5
19BD
  8
4
  6
DASHED1
 66
     1
 10
0.0
 20
0.0
 30
0.0
  0
VERTEX
  5
1E14
  8
4
  6
DASHED1
 10
-1379.6877696967249
 20
2276.847455059597
 30
0.0
  0
VERTEX
  5
1E15
  8
4
  6
DASHED1
 10
-1350.8740001654751
 20
2281.8043032041251
 30
0.0
  0
VERTEX
  5
1E16
  8
4
  6
DASHED1
 10
-1315.0777416205499
 20
2285.4656435361539
 30
0.0
  0
VERTEX
  5
1E17
  8
4
  6
DASHED1
 10
-1276.460047528755
 20
2288.0256410947582
 30
0.0
  0
VERTEX
  5
1E18
  8
4
  6
DASHED1
 10
-1239.1811656928139
 20
2289.6784609189649
 30
0.0
  0
VERTEX
  5
1E19
  8
4
  6
DASHED1
 10
-1207.4025524115641
 20
2290.6178652158469
 30
0.0
  0
VERTEX
  5
1E1A
  8
4
  6
DASHED1
 10
-1185.2838512396961
 20
2291.0388246884932
 30
0.0
  0
VERTEX
  5
1E1B
  8
4
  6
DASHED1
 10
-1176.9863170600049
 20
2291.1363100400658
 30
0.0
  0
VERTEX
  5
1E1C
  8
4
  6
DASHED1
 10
-1185.2838512396961
 20
2291.0388246884932
 30
0.0
  0
SEQEND
  5
1E1D
  8
4
  6
DASHED1
  0
POLYLINE
  5
19BE
  8
4
  6
DASHED1
 66
     1
 10
0.0
 20
0.0
 30
0.0
  0
VERTEX
  5
1E1E
  8
4
  6
DASHED1
 10
-970.21646232368141
 20
2027.088775860376
 30
0.0
  0
VERTEX
  5
1E1F
  8
4
  6
DASHED1
 10
-828.74346427680007
 20
2029.8538149228759
 30
0.0
  0
VERTEX
  5
1E20
  8
4
  6
DASHED1
 10
-843.7066600775787
 20
1991.1456850400659
 30
0.0
  0
VERTEX
  5
1E21
  8
4
  6
DASHED1
 10
-1073.6008861518001
 20
1991.1456850400659
 30
0.0
  0
VERTEX
  5
1E22
  8
4
  6
DASHED1
 10
-843.7066600775787
 20
1991.1456850400659
 30
0.0
  0
SEQEND
  5
1E23
  8
4
  6
DASHED1
  0
POLYLINE
  5
19BF
  8
4
  6
DASHED1
 66
     1
 10
0.0
 20
0.0
 30
0.0
  0
VERTEX
  5
1E24
  8
4
  6
DASHED1
 10
-626.05490226507879
 20
1991.1456850400659
 30
0.0
  0
VERTEX
  5
1E25
  8
4
  6
DASHED1
 10
-661.42315177680007
 20
2024.324139629904
 30
0.0
  0
VERTEX
  5
1E26
  8
4
  6
DASHED1
 10
-792.01444816352011
 20
2027.088775860376
 30
0.0
  0
VERTEX
  5
1E27
  8
4
  6
DASHED1
 10
-800.17622794868146
 20
1991.1456850400659
 30
0.0
  0
VERTEX
  5
1E28
  8
4
  6
DASHED1
 10
-792.01444816352011
 20
2027.088775860376
 30
0.0
  0
SEQEND
  5
1E29
  8
4
  6
DASHED1
  0
POLYLINE
  5
19C0
  8
4
  6
DASHED1
 66
     1
 10
0.0
 20
0.0
 30
0.0
  0
VERTEX
  5
1E2A
  8
4
  6
DASHED1
 10
-601.56916007757866
 20
2024.324139629904
 30
0.0
  0
VERTEX
  5
1E2B
  8
4
  6
DASHED1
 10
-389.35845451118172
 20
2025.7066591611549
 30
0.0
  0
VERTEX
  5
1E2C
  8
4
  6
DASHED1
 10
-340.38656730415153
 20
1992.528607403347
 30
0.0
  0
VERTEX
  5
1E2D
  8
4
  6
DASHED1
 10
-563.47978019476989
 20
1992.528607403347
 30
0.0
  0
VERTEX
  5
1E2E
  8
4
  6
DASHED1
 10
-340.38656730415153
 20
1992.528607403347
 30
0.0
  0
SEQEND
  5
1E2F
  8
4
  6
DASHED1
  0
POLYLINE
  5
19C1
  8
4
  6
DASHED1
 66
     1
 10
0.0
 20
0.0
 30
0.0
  0
VERTEX
  5
1E30
  8
4
  6
DASHED1
 10
-970.21646232368141
 20
2347.8167909970971
 30
0.0
  0
VERTEX
  5
1E31
  8
4
  6
DASHED1
 10
-828.74346427680007
 20
2345.0513491025658
 30
0.0
  0
VERTEX
  5
1E32
  8
4
  6
DASHED1
 10
-843.7066600775787
 20
2383.7594789853761
 30
0.0
  0
VERTEX
  5
1E33
  8
4
  6
DASHED1
 10
-1073.6008861518001
 20
2383.7594789853761
 30
0.0
  0
VERTEX
  5
1E34
  8
4
  6
DASHED1
 10
-843.7066600775787
 20
2383.7594789853761
 30
0.0
  0
SEQEND
  5
1E35
  8
4
  6
DASHED1
  0
POLYLINE
  5
19C2
  8
4
  6
DASHED1
 66
     1
 10
0.0
 20
0.0
 30
0.0
  0
VERTEX
  5
1E36
  8
4
  6
DASHED1
 10
-626.05490226507879
 20
2383.7594789853761
 30
0.0
  0
VERTEX
  5
1E37
  8
4
  6
DASHED1
 10
-661.42315177680007
 20
2350.5814272275661
 30
0.0
  0
VERTEX
  5
1E38
  8
4
  6
DASHED1
 10
-792.01444816352011
 20
2347.8167909970971
 30
0.0
  0
VERTEX
  5
1E39
  8
4
  6
DASHED1
 10
-800.17622794868146
 20
2383.7594789853761
 30
0.0
  0
VERTEX
  5
1E3A
  8
4
  6
DASHED1
 10
-792.01444816352011
 20
2347.8167909970971
 30
0.0
  0
SEQEND
  5
1E3B
  8
4
  6
DASHED1
  0
POLYLINE
  5
19C3
  8
4
  6
DASHED1
 66
     1
 10
0.0
 20
0.0
 30
0.0
  0
VERTEX
  5
1E3C
  8
4
  6
DASHED1
 10
-601.56916007757866
 20
2350.5814272275661
 30
0.0
  0
VERTEX
  5
1E3D
  8
4
  6
DASHED1
 10
-389.35845451118172
 20
2349.1993105283468
 30
0.0
  0
VERTEX
  5
1E3E
  8
4
  6
DASHED1
 10
-340.38656730415153
 20
2382.377362286154
 30
0.0
  0
VERTEX
  5
1E3F
  8
4
  6
DASHED1
 10
-563.47978019476989
 20
2382.377362286154
 30
0.0
  0
VERTEX
  5
1E40
  8
4
  6
DASHED1
 10
-340.38656730415153
 20
2382.377362286154
 30
0.0
  0
SEQEND
  5
1E41
  8
4
  6
DASHED1
  0
POLYLINE
  5
19C4
  8
4
  6
DASHED1
 66
     1
 10
0.0
 20
0.0
 30
0.0
  0
VERTEX
  5
1E42
  8
4
  6
DASHED1
 10
-800.17622794868146
 20
2293.4336611142871
 30
0.0
  0
VERTEX
  5
1E43
  8
4
  6
DASHED1
 10
-801.38875236273987
 20
2299.5345522275661
 30
0.0
  0
VERTEX
  5
1E44
  8
4
  6
DASHED1
 10
-804.69398917913816
 20
2304.5167787900659
 30
0.0
  0
VERTEX
  5
1E45
  8
4
  6
DASHED1
 10
-809.59685783148996
 20
2307.8763979306859
 30
0.0
  0
VERTEX
  5
1E46
  8
4
  6
DASHED1
 10
-815.60066642523975
 20
2309.1082582822578
 30
0.0
  0
VERTEX
  5
1E47
  8
4
  6
DASHED1
 10
-809.59685783148996
 20
2307.8763979306859
 30
0.0
  0
SEQEND
  5
1E48
  8
4
  6
DASHED1
  0
POLYLINE
  5
19C5
  8
4
  6
DASHED1
 66
     1
 10
0.0
 20
0.0
 30
0.0
  0
VERTEX
  5
1E49
  8
4
  6
DASHED1
 10
-815.60066642523975
 20
2064.4151918760081
 30
0.0
  0
VERTEX
  5
1E4A
  8
4
  6
DASHED1
 10
-809.59685783148996
 20
2065.6466493955372
 30
0.0
  0
VERTEX
  5
1E4B
  8
4
  6
DASHED1
 10
-804.69398917913816
 20
2069.006268536154
 30
0.0
  0
VERTEX
  5
1E4C
  8
4
  6
DASHED1
 10
-801.38875236273987
 20
2073.9888979306861
 30
0.0
  0
VERTEX
  5
1E4D
  8
4
  6
DASHED1
 10
-800.17622794868146
 20
2080.0897890439651
 30
0.0
  0
VERTEX
  5
1E4E
  8
4
  6
DASHED1
 10
-801.38875236273987
 20
2073.9888979306861
 30
0.0
  0
SEQEND
  5
1E4F
  8
4
  6
DASHED1
  0
POLYLINE
  5
19C6
  8
4
  6
DASHED1
 66
     1
 10
0.0
 20
0.0
 30
0.0
  0
VERTEX
  5
1E50
  8
4
  6
DASHED1
 10
-940.28966789007882
 20
2080.0897890439651
 30
0.0
  0
VERTEX
  5
1E51
  8
4
  6
DASHED1
 10
-939.07794914007877
 20
2073.9888979306861
 30
0.0
  0
VERTEX
  5
1E52
  8
4
  6
DASHED1
 10
-935.77190665960825
 20
2069.006268536154
 30
0.0
  0
VERTEX
  5
1E53
  8
4
  6
DASHED1
 10
-930.86944083929995
 20
2065.6466493955372
 30
0.0
  0
VERTEX
  5
1E54
  8
4
  6
DASHED1
 10
-924.86522941352007
 20
2064.4151918760081
 30
0.0
  0
VERTEX
  5
1E55
  8
4
  6
DASHED1
 10
-930.86944083929995
 20
2065.6466493955372
 30
0.0
  0
SEQEND
  5
1E56
  8
4
  6
DASHED1
  0
POLYLINE
  5
19C7
  8
4
  6
DASHED1
 66
     1
 10
0.0
 20
0.0
 30
0.0
  0
VERTEX
  5
1E57
  8
4
  6
DASHED1
 10
-924.86522941352007
 20
2309.1082582822578
 30
0.0
  0
VERTEX
  5
1E58
  8
4
  6
DASHED1
 10
-930.86944083929995
 20
2307.8763979306859
 30
0.0
  0
VERTEX
  5
1E59
  8
4
  6
DASHED1
 10
-935.77190665960825
 20
2304.5167787900659
 30
0.0
  0
VERTEX
  5
1E5A
  8
4
  6
DASHED1
 10
-939.07794914007877
 20
2299.5345522275661
 30
0.0
  0
VERTEX
  5
1E5B
  8
4
  6
DASHED1
 10
-940.28966789007882
 20
2293.4336611142871
 30
0.0
  0
VERTEX
  5
1E5C
  8
4
  6
DASHED1
 10
-939.07794914007877
 20
2299.5345522275661
 30
0.0
  0
SEQEND
  5
1E5D
  8
4
  6
DASHED1
  0
POLYLINE
  5
19C8
  8
4
  6
DASHED1
 66
     1
 10
0.0
 20
0.0
 30
0.0
  0
VERTEX
  5
1E5E
  8
4
  6
DASHED1
 10
-334.94511222601989
 20
2325.6972841611541
 30
0.0
  0
VERTEX
  5
1E5F
  8
4
  6
DASHED1
 10
-288.69435539007878
 20
2375.4651674619358
 30
0.0
  0
VERTEX
  5
1E60
  8
4
  6
DASHED1
 10
-288.69435539007878
 20
2004.9700746884939
 30
0.0
  0
VERTEX
  5
1E61
  8
4
  6
DASHED1
 10
-334.94511222601989
 20
2050.5908022275662
 30
0.0
  0
VERTEX
  5
1E62
  8
4
  6
DASHED1
 10
-288.69435539007878
 20
2004.9700746884939
 30
0.0
  0
SEQEND
  5
1E63
  8
4
  6
DASHED1
  0
POLYLINE
  5
19C9
  8
4
  6
DASHED1
 66
     1
 10
0.0
 20
0.0
 30
0.0
  0
VERTEX
  5
1E64
  8
4
  6
DASHED1
 10
-362.60073966743158
 20
2313.5877504697442
 30
0.0
  0
VERTEX
  5
1E65
  8
4
  6
DASHED1
 10
-362.93831290960833
 20
2280.9188783994359
 30
0.0
  0
VERTEX
  5
1E66
  8
4
  6
DASHED1
 10
-363.18001212835833
 20
2237.331646954126
 30
0.0
  0
VERTEX
  5
1E67
  8
4
  6
DASHED1
 10
-363.3419506049317
 20
2188.3166567197432
 30
0.0
  0
VERTEX
  5
1E68
  8
4
  6
DASHED1
 10
-363.44064445257891
 20
2139.3673281064639
 30
0.0
  0
VERTEX
  5
1E69
  8
4
  6
DASHED1
 10
-363.49099845648988
 20
2095.9734560361539
 30
0.0
  0
VERTEX
  5
1E6A
  8
4
  6
DASHED1
 10
-363.50912589790153
 20
2063.629669415066
 30
0.0
  0
VERTEX
  5
1E6B
  8
4
  6
DASHED1
 10
-363.51234855415157
 20
2047.826568829126
 30
0.0
  0
VERTEX
  5
1E6C
  8
4
  6
DASHED1
 10
-363.50912589790153
 20
2063.629669415066
 30
0.0
  0
SEQEND
  5
1E6D
  8
4
  6
DASHED1
  0
POLYLINE
  5
19CA
  8
4
  6
DASHED1
 66
     1
 10
0.0
 20
0.0
 30
0.0
  0
VERTEX
  5
1E6E
  8
4
  6
DASHED1
 10
-322.80858878851978
 20
2048.9714174619362
 30
0.0
  0
VERTEX
  5
1E6F
  8
4
  6
DASHED1
 10
-314.71045646430002
 20
2083.2512148252149
 30
0.0
  0
VERTEX
  5
1E70
  8
4
  6
DASHED1
 10
-307.88769035101978
 20
2133.3429750791261
 30
0.0
  0
VERTEX
  5
1E71
  8
4
  6
DASHED1
 10
-305.01831779243162
 20
2195.7476992002139
 30
0.0
  0
VERTEX
  5
1E72
  8
4
  6
DASHED1
 10
-307.54770011665153
 20
2255.6460024228759
 30
0.0
  0
VERTEX
  5
1E73
  8
4
  6
DASHED1
 10
-314.03047599554998
 20
2300.641131817405
 30
0.0
  0
VERTEX
  5
1E74
  8
4
  6
DASHED1
 10
-322.80858878851978
 20
2330.8599794736551
 30
0.0
  0
VERTEX
  5
1E75
  8
4
  6
DASHED1
 10
-332.224384686961
 20
2346.433868633816
 30
0.0
  0
VERTEX
  5
1E76
  8
4
  6
DASHED1
 10
-341.87422599554998
 20
2350.840851055686
 30
0.0
  0
VERTEX
  5
1E77
  8
4
  6
DASHED1
 10
-351.26907462835823
 20
2348.5080507627149
 30
0.0
  0
VERTEX
  5
1E78
  8
4
  6
DASHED1
 10
-358.62357902288841
 20
2340.9908022275658
 30
0.0
  0
VERTEX
  5
1E79
  8
4
  6
DASHED1
 10
-362.15158195257891
 20
2329.8448427549051
 30
0.0
  0
VERTEX
  5
1E7A
  8
4
  6
DASHED1
 10
-358.62357902288841
 20
2340.9908022275658
 30
0.0
  0
SEQEND
  5
1E7B
  8
4
  6
DASHED1
  0
POLYLINE
  5
19CB
  8
4
  6
DASHED1
 66
     1
 10
0.0
 20
0.0
 30
0.0
  0
VERTEX
  5
1E7C
  8
4
  6
DASHED1
 10
-359.72854728460823
 20
2033.2243105283469
 30
0.0
  0
VERTEX
  5
1E7D
  8
4
  6
DASHED1
 10
-349.56831779243169
 20
2028.4721010556859
 30
0.0
  0
VERTEX
  5
1E7E
  8
4
  6
DASHED1
 10
-337.87813224554998
 20
2029.940826641626
 30
0.0
  0
VERTEX
  5
1E7F
  8
4
  6
DASHED1
 10
-329.50365714790161
 20
2034.000970684597
 30
0.0
  0
VERTEX
  5
1E80
  8
4
  6
DASHED1
 10
-337.87813224554998
 20
2029.940826641626
 30
0.0
  0
SEQEND
  5
1E81
  8
4
  6
DASHED1
  0
POLYLINE
  5
19CC
  8
4
  6
DASHED1
 66
     1
 10
0.0
 20
0.0
 30
0.0
  0
VERTEX
  5
1E82
  8
4
  6
DASHED1
 10
-286.20767326118158
 20
1978.790020977566
 30
0.0
  0
VERTEX
  5
1E83
  8
4
  6
DASHED1
 10
-296.85613517523979
 20
1966.261944805686
 30
0.0
  0
VERTEX
  5
1E84
  8
4
  6
DASHED1
 10
-286.20767326118158
 20
1978.790020977566
 30
0.0
  0
SEQEND
  5
1E85
  8
4
  6
DASHED1
  0
POLYLINE
  5
19CD
  8
4
  6
DASHED1
 66
     1
 10
0.0
 20
0.0
 30
0.0
  0
VERTEX
  5
1E86
  8
4
  6
DASHED1
 10
-276.4510814643001
 20
2009.118036114287
 30
0.0
  0
VERTEX
  5
1E87
  8
4
  6
DASHED1
 10
-277.15321769476992
 20
2004.365826641626
 30
0.0
  0
VERTEX
  5
1E88
  8
4
  6
DASHED1
 10
-280.0225902533582
 20
1992.8742372861541
 30
0.0
  0
VERTEX
  5
1E89
  8
4
  6
DASHED1
 10
-277.15321769476992
 20
2004.365826641626
 30
0.0
  0
SEQEND
  5
1E8A
  8
4
  6
DASHED1
  0
POLYLINE
  5
19CE
  8
4
  6
DASHED1
 66
     1
 10
0.0
 20
0.0
 30
0.0
  0
VERTEX
  5
1E8B
  8
4
  6
DASHED1
 10
-290.2247142768
 20
2404.8416933408471
 30
0.0
  0
VERTEX
  5
1E8C
  8
4
  6
DASHED1
 10
-281.89293937446098
 20
2393.0906801572442
 30
0.0
  0
VERTEX
  5
1E8D
  8
4
  6
DASHED1
 10
-277.64185294868162
 20
2381.8585146299051
 30
0.0
  0
VERTEX
  5
1E8E
  8
4
  6
DASHED1
 10
-276.4510814643001
 20
2376.847686993186
 30
0.0
  0
VERTEX
  5
1E8F
  8
4
  6
DASHED1
 10
-277.64185294868162
 20
2381.8585146299051
 30
0.0
  0
SEQEND
  5
1E90
  8
4
  6
DASHED1
  0
POLYLINE
  5
19CF
  8
4
  6
DASHED1
 66
     1
 10
0.0
 20
0.0
 30
0.0
  0
VERTEX
  5
1E91
  8
4
  6
DASHED1
 10
-337.66583976507889
 20
2269.0172060361551
 30
0.0
  0
VERTEX
  5
1E92
  8
4
  6
DASHED1
 10
-338.3071483588289
 20
2272.2459047666262
 30
0.0
  0
VERTEX
  5
1E93
  8
4
  6
DASHED1
 10
-340.05624503851988
 20
2274.8824404111551
 30
0.0
  0
VERTEX
  5
1E94
  8
4
  6
DASHED1
 10
-342.65048331976988
 20
2276.6601381650662
 30
0.0
  0
VERTEX
  5
1E95
  8
4
  6
DASHED1
 10
-345.82802238226992
 20
2277.3123232236539
 30
0.0
  0
VERTEX
  5
1E96
  8
4
  6
DASHED1
 10
-342.65048331976988
 20
2276.6601381650662
 30
0.0
  0
SEQEND
  5
1E97
  8
4
  6
DASHED1
  0
POLYLINE
  5
19D0
  8
4
  6
DASHED1
 66
     1
 10
0.0
 20
0.0
 30
0.0
  0
VERTEX
  5
1E98
  8
4
  6
DASHED1
 10
-353.98980216743161
 20
2208.1891664853761
 30
0.0
  0
VERTEX
  5
1E99
  8
4
  6
DASHED1
 10
-353.34849357368159
 20
2204.9608705869359
 30
0.0
  0
VERTEX
  5
1E9A
  8
4
  6
DASHED1
 10
-351.59939689398988
 20
2202.3243349424051
 30
0.0
  0
VERTEX
  5
1E9B
  8
4
  6
DASHED1
 10
-349.00475578071098
 20
2200.546234356465
 30
0.0
  0
VERTEX
  5
1E9C
  8
4
  6
DASHED1
 10
-345.82802238226992
 20
2199.8944521299049
 30
0.0
  0
VERTEX
  5
1E9D
  8
4
  6
DASHED1
 10
-342.65048331976988
 20
2200.546234356465
 30
0.0
  0
VERTEX
  5
1E9E
  8
4
  6
DASHED1
 10
-340.05624503851988
 20
2202.3243349424051
 30
0.0
  0
VERTEX
  5
1E9F
  8
4
  6
DASHED1
 10
-338.3071483588289
 20
2204.9608705869359
 30
0.0
  0
VERTEX
  5
1EA0
  8
4
  6
DASHED1
 10
-337.66583976507889
 20
2208.1891664853761
 30
0.0
  0
VERTEX
  5
1EA1
  8
4
  6
DASHED1
 10
-338.3071483588289
 20
2204.9608705869359
 30
0.0
  0
SEQEND
  5
1EA2
  8
4
  6
DASHED1
  0
POLYLINE
  5
19D1
  8
4
  6
DASHED1
 66
     1
 10
0.0
 20
0.0
 30
0.0
  0
VERTEX
  5
1EA3
  8
4
  6
DASHED1
 10
-349.00475578071098
 20
2276.6601381650662
 30
0.0
  0
VERTEX
  5
1EA4
  8
4
  6
DASHED1
 10
-351.59939689398988
 20
2274.8824404111551
 30
0.0
  0
VERTEX
  5
1EA5
  8
4
  6
DASHED1
 10
-353.34849357368159
 20
2272.2459047666262
 30
0.0
  0
VERTEX
  5
1EA6
  8
4
  6
DASHED1
 10
-353.98980216743161
 20
2269.0172060361551
 30
0.0
  0
VERTEX
  5
1EA7
  8
4
  6
DASHED1
 10
-353.34849357368159
 20
2272.2459047666262
 30
0.0
  0
SEQEND
  5
1EA8
  8
4
  6
DASHED1
  0
POLYLINE
  5
19D2
  8
4
  6
DASHED1
 66
     1
 10
0.0
 20
0.0
 30
0.0
  0
VERTEX
  5
1EA9
  8
4
  6
DASHED1
 10
-337.66583976507889
 20
2172.2464784970971
 30
0.0
  0
VERTEX
  5
1EAA
  8
4
  6
DASHED1
 10
-338.3071483588289
 20
2175.4755800595972
 30
0.0
  0
VERTEX
  5
1EAB
  8
4
  6
DASHED1
 10
-340.05624503851988
 20
2178.1117128720971
 30
0.0
  0
VERTEX
  5
1EAC
  8
4
  6
DASHED1
 10
-342.65048331976988
 20
2179.889007793965
 30
0.0
  0
VERTEX
  5
1EAD
  8
4
  6
DASHED1
 10
-345.82802238226992
 20
2180.5407900205369
 30
0.0
  0
VERTEX
  5
1EAE
  8
4
  6
DASHED1
 10
-342.65048331976988
 20
2179.889007793965
 30
0.0
  0
SEQEND
  5
1EAF
  8
4
  6
DASHED1
  0
POLYLINE
  5
19D3
  8
4
  6
DASHED1
 66
     1
 10
0.0
 20
0.0
 30
0.0
  0
VERTEX
  5
1EB0
  8
4
  6
DASHED1
 10
-353.98980216743161
 20
2111.4176332822581
 30
0.0
  0
VERTEX
  5
1EB1
  8
4
  6
DASHED1
 10
-353.34849357368159
 20
2108.188934551787
 30
0.0
  0
VERTEX
  5
1EB2
  8
4
  6
DASHED1
 10
-351.59939689398988
 20
2105.5528017392871
 30
0.0
  0
VERTEX
  5
1EB3
  8
4
  6
DASHED1
 10
-349.00475578071098
 20
2103.7751039853761
 30
0.0
  0
VERTEX
  5
1EB4
  8
4
  6
DASHED1
 10
-345.82802238226992
 20
2103.124127422876
 30
0.0
  0
VERTEX
  5
1EB5
  8
4
  6
DASHED1
 10
-342.65048331976988
 20
2103.7751039853761
 30
0.0
  0
VERTEX
  5
1EB6
  8
4
  6
DASHED1
 10
-340.05624503851988
 20
2105.5528017392871
 30
0.0
  0
VERTEX
  5
1EB7
  8
4
  6
DASHED1
 10
-338.3071483588289
 20
2108.188934551787
 30
0.0
  0
VERTEX
  5
1EB8
  8
4
  6
DASHED1
 10
-337.66583976507889
 20
2111.4176332822581
 30
0.0
  0
VERTEX
  5
1EB9
  8
4
  6
DASHED1
 10
-338.3071483588289
 20
2108.188934551787
 30
0.0
  0
SEQEND
  5
1EBA
  8
4
  6
DASHED1
  0
POLYLINE
  5
19D4
  8
4
  6
DASHED1
 66
     1
 10
0.0
 20
0.0
 30
0.0
  0
VERTEX
  5
1EBB
  8
4
  6
DASHED1
 10
-349.00475578071098
 20
2179.889007793965
 30
0.0
  0
VERTEX
  5
1EBC
  8
4
  6
DASHED1
 10
-351.59939689398988
 20
2178.1117128720971
 30
0.0
  0
VERTEX
  5
1EBD
  8
4
  6
DASHED1
 10
-353.34849357368159
 20
2175.4755800595972
 30
0.0
  0
VERTEX
  5
1EBE
  8
4
  6
DASHED1
 10
-353.98980216743161
 20
2172.2464784970971
 30
0.0
  0
VERTEX
  5
1EBF
  8
4
  6
DASHED1
 10
-353.34849357368159
 20
2175.4755800595972
 30
0.0
  0
SEQEND
  5
1EC0
  8
4
  6
DASHED1
  0
POLYLINE
  5
19D5
  8
4
  6
DASHED1
 66
     1
 10
0.0
 20
0.0
 30
0.0
  0
VERTEX
  5
1EC1
  8
4
  6
DASHED1
 10
-1045.5448436713291
 20
1961.4235292783469
 30
0.0
  0
VERTEX
  5
1EC2
  8
4
  6
DASHED1
 10
-1039.061664960388
 20
1946.476043926787
 30
0.0
  0
VERTEX
  5
1EC3
  8
4
  6
DASHED1
 10
-1035.5119091010199
 20
1937.231048809597
 30
0.0
  0
VERTEX
  5
1EC4
  8
4
  6
DASHED1
 10
-1036.6386302924309
 20
1933.3860170713151
 30
0.0
  0
VERTEX
  5
1EC5
  8
4
  6
DASHED1
 10
-1040.443378827579
 20
1930.318451153347
 30
0.0
  0
VERTEX
  5
1EC6
  8
4
  6
DASHED1
 10
-1044.5035228705499
 20
1928.288177715847
 30
0.0
  0
VERTEX
  5
1EC7
  8
4
  6
DASHED1
 10
-1046.39481925727
 20
1927.5538149228751
 30
0.0
  0
VERTEX
  5
1EC8
  8
4
  6
DASHED1
 10
-1048.6051586127401
 20
1930.4908632627139
 30
0.0
  0
VERTEX
  5
1EC9
  8
4
  6
DASHED1
 10
-1053.8766185736811
 20
1937.5758730283469
 30
0.0
  0
VERTEX
  5
1ECA
  8
4
  6
DASHED1
 10
-1060.16804923774
 20
1946.2166200986539
 30
0.0
  0
VERTEX
  5
1ECB
  8
4
  6
DASHED1
 10
-1065.439106366651
 20
1953.8200746884929
 30
0.0
  0
VERTEX
  5
1ECC
  8
4
  6
DASHED1
 10
-1068.98926505805
 20
1960.6460634580369
 30
0.0
  0
VERTEX
  5
1ECD
  8
4
  6
DASHED1
 10
-1071.3905467963291
 20
1967.990497051786
 30
0.0
  0
VERTEX
  5
1ECE
  8
4
  6
DASHED1
 10
-1072.5172679877401
 20
1974.816082989287
 30
0.0
  0
VERTEX
  5
1ECF
  8
4
  6
DASHED1
 10
-1072.2409252143
 20
1980.0867372861539
 30
0.0
  0
VERTEX
  5
1ED0
  8
4
  6
DASHED1
 10
-1072.5172679877401
 20
1974.816082989287
 30
0.0
  0
SEQEND
  5
1ED1
  8
4
  6
DASHED1
  0
POLYLINE
  5
19D6
  8
4
  6
DASHED1
 66
     1
 10
0.0
 20
0.0
 30
0.0
  0
VERTEX
  5
1ED2
  8
4
  6
DASHED1
 10
-1054.5565990424309
 20
1981.4692568174039
 30
0.0
  0
VERTEX
  5
1ED3
  8
4
  6
DASHED1
 10
-1051.7722240424309
 20
1975.3345278135071
 30
0.0
  0
VERTEX
  5
1ED4
  8
4
  6
DASHED1
 10
-1054.5565990424309
 20
1981.4692568174039
 30
0.0
  0
SEQEND
  5
1ED5
  8
4
  6
DASHED1
  0
POLYLINE
  5
19D7
  8
4
  6
DASHED1
 66
     1
 10
0.0
 20
0.0
 30
0.0
  0
VERTEX
  5
1ED6
  8
4
  6
DASHED1
 10
-1045.5448436713291
 20
2413.482037579126
 30
0.0
  0
VERTEX
  5
1ED7
  8
4
  6
DASHED1
 10
-1039.061664960388
 20
2428.4295229306858
 30
0.0
  0
VERTEX
  5
1ED8
  8
4
  6
DASHED1
 10
-1035.5119091010199
 20
2437.6749208799051
 30
0.0
  0
VERTEX
  5
1ED9
  8
4
  6
DASHED1
 10
-1036.6386302924309
 20
2441.520355450215
 30
0.0
  0
VERTEX
  5
1EDA
  8
4
  6
DASHED1
 10
-1040.443378827579
 20
2444.5875185361551
 30
0.0
  0
VERTEX
  5
1EDB
  8
4
  6
DASHED1
 10
-1044.5035228705499
 20
2446.6177919736551
 30
0.0
  0
VERTEX
  5
1EDC
  8
4
  6
DASHED1
 10
-1046.39481925727
 20
2447.3517519345969
 30
0.0
  0
VERTEX
  5
1EDD
  8
4
  6
DASHED1
 10
-1048.6051586127401
 20
2444.4147035947581
 30
0.0
  0
VERTEX
  5
1EDE
  8
4
  6
DASHED1
 10
-1053.8766185736811
 20
2437.329693829126
 30
0.0
  0
VERTEX
  5
1EDF
  8
4
  6
DASHED1
 10
-1060.16804923774
 20
2428.6889467588162
 30
0.0
  0
VERTEX
  5
1EE0
  8
4
  6
DASHED1
 10
-1065.439106366651
 20
2421.0858950009938
 30
0.0
  0
VERTEX
  5
1EE1
  8
4
  6
DASHED1
 10
-1068.98926505805
 20
2414.2599062314639
 30
0.0
  0
VERTEX
  5
1EE2
  8
4
  6
DASHED1
 10
-1071.3905467963291
 20
2406.9158754697442
 30
0.0
  0
VERTEX
  5
1EE3
  8
4
  6
DASHED1
 10
-1072.5172679877401
 20
2400.0894838681861
 30
0.0
  0
VERTEX
  5
1EE4
  8
4
  6
DASHED1
 10
-1072.2409252143
 20
2394.8192324033471
 30
0.0
  0
VERTEX
  5
1EE5
  8
4
  6
DASHED1
 10
-1072.5172679877401
 20
2400.0894838681861
 30
0.0
  0
SEQEND
  5
1EE6
  8
4
  6
DASHED1
  0
POLYLINE
  5
19D8
  8
4
  6
DASHED1
 66
     1
 10
0.0
 20
0.0
 30
0.0
  0
VERTEX
  5
1EE7
  8
4
  6
DASHED1
 10
-1054.5565990424309
 20
2393.4367128720969
 30
0.0
  0
VERTEX
  5
1EE8
  8
4
  6
DASHED1
 10
-1051.7722240424309
 20
2399.5706362119358
 30
0.0
  0
VERTEX
  5
1EE9
  8
4
  6
DASHED1
 10
-1054.5565990424309
 20
2393.4367128720969
 30
0.0
  0
SEQEND
  5
1EEA
  8
4
  6
DASHED1
  0
POLYLINE
  5
19D9
  8
4
  6
DASHED1
 66
     1
 10
0.0
 20
0.0
 30
0.0
  0
VERTEX
  5
1EEB
  8
4
  6
DASHED1
 10
-1434.0874156928139
 20
2371.3180117002139
 30
0.0
  0
VERTEX
  5
1EEC
  8
4
  6
DASHED1
 10
-1438.2321544623439
 20
2340.6451723447581
 30
0.0
  0
VERTEX
  5
1EED
  8
4
  6
DASHED1
 10
-1440.71903800727
 20
2291.8275698056859
 30
0.0
  0
VERTEX
  5
1EEE
  8
4
  6
DASHED1
 10
-1441.9305553412551
 20
2239.898895489287
 30
0.0
  0
VERTEX
  5
1EEF
  8
4
  6
DASHED1
 10
-1442.249195477975
 20
2199.8944521299049
 30
0.0
  0
VERTEX
  5
1EF0
  8
4
  6
DASHED1
 10
-1440.909980390079
 20
2156.1968447080371
 30
0.0
  0
VERTEX
  5
1EF1
  8
4
  6
DASHED1
 10
-1437.6579174018
 20
2096.0383119931862
 30
0.0
  0
VERTEX
  5
1EF2
  8
4
  6
DASHED1
 10
-1433.6408763861809
 20
2038.7318300595971
 30
0.0
  0
VERTEX
  5
1EF3
  8
4
  6
DASHED1
 10
-1430.005921552196
 20
2003.5879579892869
 30
0.0
  0
VERTEX
  5
1EF4
  8
4
  6
DASHED1
 10
-1422.524525067814
 20
1987.4090151181861
 30
0.0
  0
VERTEX
  5
1EF5
  8
4
  6
DASHED1
 10
-1408.921290204534
 20
1974.729474102566
 30
0.0
  0
VERTEX
  5
1EF6
  8
4
  6
DASHED1
 10
-1393.27791251899
 20
1966.456512676787
 30
0.0
  0
VERTEX
  5
1EF7
  8
4
  6
DASHED1
 10
-1379.6746776557111
 20
1963.4969057431861
 30
0.0
  0
VERTEX
  5
1EF8
  8
4
  6
DASHED1
 10
-1365.837598798284
 20
1963.086822735376
 30
0.0
  0
VERTEX
  5
1EF9
  8
4
  6
DASHED1
 10
-1349.5772838568739
 20
1962.287201153347
 30
0.0
  0
VERTEX
  5
1EFA
  8
4
  6
DASHED1
 10
-1335.1029247260201
 20
1961.7474062314641
 30
0.0
  0
VERTEX
  5
1EFB
  8
4
  6
DASHED1
 10
-1326.621900556094
 20
1962.114789043964
 30
0.0
  0
VERTEX
  5
1EFC
  8
4
  6
DASHED1
 10
-1322.4137157416519
 20
1963.7776796689641
 30
0.0
  0
VERTEX
  5
1EFD
  8
4
  6
DASHED1
 10
-1318.4597179389159
 20
1966.089532696315
 30
0.0
  0
VERTEX
  5
1EFE
  8
4
  6
DASHED1
 10
-1315.5264965033591
 20
1968.1415590635081
 30
0.0
  0
VERTEX
  5
1EFF
  8
4
  6
DASHED1
 10
-1314.3790294623441
 20
1969.0269838681861
 30
0.0
  0
VERTEX
  5
1F00
  8
4
  6
DASHED1
 10
-1315.5264965033591
 20
1968.1415590635081
 30
0.0
  0
SEQEND
  5
1F01
  8
4
  6
DASHED1
  0
POLYLINE
  5
19DA
  8
4
  6
DASHED1
 66
     1
 10
0.0
 20
0.0
 30
0.0
  0
VERTEX
  5
1F02
  8
4
  6
DASHED1
 10
-1371.3424999213289
 20
2412.617962872097
 30
0.0
  0
VERTEX
  5
1F03
  8
4
  6
DASHED1
 10
-1389.430262372505
 20
2410.0909975400659
 30
0.0
  0
VERTEX
  5
1F04
  8
4
  6
DASHED1
 10
-1402.799653241651
 20
2405.8789858213158
 30
0.0
  0
VERTEX
  5
1F05
  8
4
  6
DASHED1
 10
-1411.8968090033591
 20
2400.6727846494359
 30
0.0
  0
VERTEX
  5
1F06
  8
4
  6
DASHED1
 10
-1420.48397941352
 20
2394.3003847470968
 30
0.0
  0
VERTEX
  5
1F07
  8
4
  6
DASHED1
 10
-1428.05077628852
 20
2385.0771425595972
 30
0.0
  0
VERTEX
  5
1F08
  8
4
  6
DASHED1
 10
-1420.48397941352
 20
2394.3003847470968
 30
0.0
  0
SEQEND
  5
1F09
  8
4
  6
DASHED1
  0
POLYLINE
  5
19DB
  8
4
  6
DASHED1
 66
     1
 10
0.0
 20
0.0
 30
0.0
  0
VERTEX
  5
1F0A
  8
4
  6
DASHED1
 10
-1392.2573375678139
 20
2384.451141583037
 30
0.0
  0
VERTEX
  5
1F0B
  8
4
  6
DASHED1
 10
-1377.166846845166
 20
2392.0114931455369
 30
0.0
  0
VERTEX
  5
1F0C
  8
4
  6
DASHED1
 10
-1367.4316051459459
 20
2396.2021547666259
 30
0.0
  0
VERTEX
  5
1F0D
  8
4
  6
DASHED1
 10
-1358.8234874701659
 20
2398.6642641416261
 30
0.0
  0
VERTEX
  5
1F0E
  8
4
  6
DASHED1
 10
-1346.5167674994609
 20
2401.385797344758
 30
0.0
  0
VERTEX
  5
1F0F
  8
4
  6
DASHED1
 10
-1335.485212323681
 20
2403.588885723655
 30
0.0
  0
VERTEX
  5
1F10
  8
4
  6
DASHED1
 10
-1330.7025890326661
 20
2404.4964662900661
 30
0.0
  0
VERTEX
  5
1F11
  8
4
  6
DASHED1
 10
-1331.4681713080499
 20
2406.0082949033472
 30
0.0
  0
VERTEX
  5
1F12
  8
4
  6
DASHED1
 10
-1333.7637096381241
 20
2409.3348818174049
 30
0.0
  0
VERTEX
  5
1F13
  8
4
  6
DASHED1
 10
-1337.5898082709459
 20
2412.661468731465
 30
0.0
  0
VERTEX
  5
1F14
  8
4
  6
DASHED1
 10
-1342.945862958446
 20
2414.173700176787
 30
0.0
  0
VERTEX
  5
1F15
  8
4
  6
DASHED1
 10
-1354.0197154975051
 20
2413.8498232236539
 30
0.0
  0
VERTEX
  5
1F16
  8
4
  6
DASHED1
 10
-1342.945862958446
 20
2414.173700176787
 30
0.0
  0
SEQEND
  5
1F17
  8
4
  6
DASHED1
  0
POLYLINE
  5
19DC
  8
4
  6
DASHED1
 66
     1
 10
0.0
 20
0.0
 30
0.0
  0
VERTEX
  5
1F18
  8
4
  6
DASHED1
 10
-1420.377833173284
 20
2092.302044903347
 30
0.0
  0
VERTEX
  5
1F19
  8
4
  6
DASHED1
 10
-1421.6344676947699
 20
2129.825042950215
 30
0.0
  0
VERTEX
  5
1F1A
  8
4
  6
DASHED1
 10
-1423.034711835388
 20
2173.4557802549039
 30
0.0
  0
VERTEX
  5
1F1B
  8
4
  6
DASHED1
 10
-1424.3713085150789
 20
2218.0585512509938
 30
0.0
  0
VERTEX
  5
1F1C
  8
4
  6
DASHED1
 10
-1425.4365978217249
 20
2258.4972475400659
 30
0.0
  0
VERTEX
  5
1F1D
  8
4
  6
DASHED1
 10
-1426.0239269232841
 20
2289.6377748838158
 30
0.0
  0
VERTEX
  5
1F1E
  8
4
  6
DASHED1
 10
-1425.925233075624
 20
2306.3428163877152
 30
0.0
  0
VERTEX
  5
1F1F
  8
4
  6
DASHED1
 10
-1424.2250804877399
 20
2322.2192324033472
 30
0.0
  0
VERTEX
  5
1F20
  8
4
  6
DASHED1
 10
-1421.5039501166509
 20
2337.966339336936
 30
0.0
  0
VERTEX
  5
1F21
  8
4
  6
DASHED1
 10
-1418.2734386420341
 20
2352.4171327939648
 30
0.0
  0
VERTEX
  5
1F22
  8
4
  6
DASHED1
 10
-1415.0427257514159
 20
2364.406219708037
 30
0.0
  0
VERTEX
  5
1F23
  8
4
  6
DASHED1
 10
-1406.8382457709461
 20
2374.8170107236551
 30
0.0
  0
VERTEX
  5
1F24
  8
4
  6
DASHED1
 10
-1415.0427257514159
 20
2364.406219708037
 30
0.0
  0
SEQEND
  5
1F25
  8
4
  6
DASHED1
  0
POLYLINE
  5
19DD
  8
4
  6
DASHED1
 66
     1
 10
0.0
 20
0.0
 30
0.0
  0
VERTEX
  5
1F26
  8
4
  6
DASHED1
 10
-1377.1239452338291
 20
1979.913922344758
 30
0.0
  0
VERTEX
  5
1F27
  8
4
  6
DASHED1
 10
-1391.64120597602
 20
1987.3663149228751
 30
0.0
  0
VERTEX
  5
1F28
  8
4
  6
DASHED1
 10
-1405.5201793646961
 20
1998.0582826963159
 30
0.0
  0
VERTEX
  5
1F29
  8
4
  6
DASHED1
 10
-1415.1063732123439
 20
2014.129266583037
 30
0.0
  0
VERTEX
  5
1F2A
  8
4
  6
DASHED1
 10
-1418.9536205268
 20
2033.310516583037
 30
0.0
  0
VERTEX
  5
1F2B
  8
4
  6
DASHED1
 10
-1419.48495597602
 20
2049.3810976377149
 30
0.0
  0
VERTEX
  5
1F2C
  8
4
  6
DASHED1
 10
-1419.12361564399
 20
2056.1208803525651
 30
0.0
  0
VERTEX
  5
1F2D
  8
4
  6
DASHED1
 10
-1419.4720653510201
 20
2066.0216860166252
 30
0.0
  0
VERTEX
  5
1F2E
  8
4
  6
DASHED1
 10
-1419.12361564399
 20
2056.1208803525651
 30
0.0
  0
SEQEND
  5
1F2F
  8
4
  6
DASHED1
  0
POLYLINE
  5
19DE
  8
4
  6
DASHED1
 66
     1
 10
0.0
 20
0.0
 30
0.0
  0
VERTEX
  5
1F30
  8
4
  6
DASHED1
 10
-1317.6095409369609
 20
1969.4801699033469
 30
0.0
  0
VERTEX
  5
1F31
  8
4
  6
DASHED1
 10
-1325.941718671329
 20
1970.582318340847
 30
0.0
  0
VERTEX
  5
1F32
  8
4
  6
DASHED1
 10
-1337.334412763124
 20
1971.9430849424041
 30
0.0
  0
VERTEX
  5
1F33
  8
4
  6
DASHED1
 10
-1349.7472789740641
 20
1973.1749452939639
 30
0.0
  0
VERTEX
  5
1F34
  8
4
  6
DASHED1
 10
-1362.862079999461
 20
1975.312372051787
 30
0.0
  0
VERTEX
  5
1F35
  8
4
  6
DASHED1
 10
-1349.7472789740641
 20
1973.1749452939639
 30
0.0
  0
SEQEND
  5
1F36
  8
4
  6
DASHED1
  0
POLYLINE
  5
19DF
  8
4
  6
DASHED1
 66
     1
 10
0.0
 20
0.0
 30
0.0
  0
VERTEX
  5
1F37
  8
4
  6
DASHED1
 10
-743.04215812446103
 20
2329.8456484189651
 30
0.0
  0
VERTEX
  5
1F38
  8
4
  6
DASHED1
 10
-744.00492667913818
 20
2334.687286602566
 30
0.0
  0
VERTEX
  5
1F39
  8
4
  6
DASHED1
 10
-746.62857169868153
 20
2338.6426943174051
 30
0.0
  0
VERTEX
  5
1F3A
  8
4
  6
DASHED1
 10
-750.51992912055005
 20
2341.3090395322579
 30
0.0
  0
VERTEX
  5
1F3B
  8
4
  6
DASHED1
 10
-755.28502921821098
 20
2342.2863100400659
 30
0.0
  0
VERTEX
  5
1F3C
  8
4
  6
DASHED1
 10
-750.51992912055005
 20
2341.3090395322579
 30
0.0
  0
SEQEND
  5
1F3D
  8
4
  6
DASHED1
  0
POLYLINE
  5
19E0
  8
4
  6
DASHED1
 66
     1
 10
0.0
 20
0.0
 30
0.0
  0
VERTEX
  5
1F3E
  8
4
  6
DASHED1
 10
-767.52830314398977
 20
2045.0607241025659
 30
0.0
  0
VERTEX
  5
1F3F
  8
4
  6
DASHED1
 10
-766.56634025335825
 20
2040.2182802549039
 30
0.0
  0
VERTEX
  5
1F40
  8
4
  6
DASHED1
 10
-763.94269523382866
 20
2036.2628725400659
 30
0.0
  0
VERTEX
  5
1F41
  8
4
  6
DASHED1
 10
-760.05093497993153
 20
2033.596527325215
 30
0.0
  0
VERTEX
  5
1F42
  8
4
  6
DASHED1
 10
-755.28502921821098
 20
2032.6188539853761
 30
0.0
  0
VERTEX
  5
1F43
  8
4
  6
DASHED1
 10
-750.51992912055005
 20
2033.596527325215
 30
0.0
  0
VERTEX
  5
1F44
  8
4
  6
DASHED1
 10
-746.62857169868153
 20
2036.2628725400659
 30
0.0
  0
VERTEX
  5
1F45
  8
4
  6
DASHED1
 10
-744.00492667913818
 20
2040.2182802549039
 30
0.0
  0
VERTEX
  5
1F46
  8
4
  6
DASHED1
 10
-743.04215812446103
 20
2045.0607241025659
 30
0.0
  0
VERTEX
  5
1F47
  8
4
  6
DASHED1
 10
-744.00492667913818
 20
2040.2182802549039
 30
0.0
  0
SEQEND
  5
1F48
  8
4
  6
DASHED1
  0
POLYLINE
  5
19E1
  8
4
  6
DASHED1
 66
     1
 10
0.0
 20
0.0
 30
0.0
  0
VERTEX
  5
1F49
  8
4
  6
DASHED1
 10
-760.05093497993153
 20
2341.3090395322579
 30
0.0
  0
VERTEX
  5
1F4A
  8
4
  6
DASHED1
 10
-763.94269523382866
 20
2338.6426943174051
 30
0.0
  0
VERTEX
  5
1F4B
  8
4
  6
DASHED1
 10
-766.56634025335825
 20
2334.687286602566
 30
0.0
  0
VERTEX
  5
1F4C
  8
4
  6
DASHED1
 10
-767.52830314398977
 20
2329.8456484189651
 30
0.0
  0
VERTEX
  5
1F4D
  8
4
  6
DASHED1
 10
-766.56634025335825
 20
2334.687286602566
 30
0.0
  0
SEQEND
  5
1F4E
  8
4
  6
DASHED1
  0
POLYLINE
  5
19E2
  8
4
  6
DASHED1
 66
     1
 10
0.0
 20
0.0
 30
0.0
  0
VERTEX
  5
1F4F
  8
4
  6
DASHED1
 10
-611.09090080023998
 20
2329.8456484189651
 30
0.0
  0
VERTEX
  5
1F50
  8
4
  6
DASHED1
 10
-612.05326652288829
 20
2334.687286602566
 30
0.0
  0
VERTEX
  5
1F51
  8
4
  6
DASHED1
 10
-614.67691154243153
 20
2338.6426943174051
 30
0.0
  0
VERTEX
  5
1F52
  8
4
  6
DASHED1
 10
-618.56867179632866
 20
2341.3090395322579
 30
0.0
  0
VERTEX
  5
1F53
  8
4
  6
DASHED1
 10
-623.3341747260198
 20
2342.2863100400659
 30
0.0
  0
VERTEX
  5
1F54
  8
4
  6
DASHED1
 10
-618.56867179632866
 20
2341.3090395322579
 30
0.0
  0
SEQEND
  5
1F55
  8
4
  6
DASHED1
  0
POLYLINE
  5
19E3
  8
4
  6
DASHED1
 66
     1
 10
0.0
 20
0.0
 30
0.0
  0
VERTEX
  5
1F56
  8
4
  6
DASHED1
 10
-635.57704581976986
 20
2045.0607241025659
 30
0.0
  0
VERTEX
  5
1F57
  8
4
  6
DASHED1
 10
-634.61548576118162
 20
2040.2182802549039
 30
0.0
  0
VERTEX
  5
1F58
  8
4
  6
DASHED1
 10
-631.99103507757877
 20
2036.2628725400659
 30
0.0
  0
VERTEX
  5
1F59
  8
4
  6
DASHED1
 10
-628.10008048773989
 20
2033.596527325215
 30
0.0
  0
VERTEX
  5
1F5A
  8
4
  6
DASHED1
 10
-623.3341747260198
 20
2032.6188539853761
 30
0.0
  0
VERTEX
  5
1F5B
  8
4
  6
DASHED1
 10
-618.56867179632866
 20
2033.596527325215
 30
0.0
  0
VERTEX
  5
1F5C
  8
4
  6
DASHED1
 10
-614.67691154243153
 20
2036.2628725400659
 30
0.0
  0
VERTEX
  5
1F5D
  8
4
  6
DASHED1
 10
-612.05326652288829
 20
2040.2182802549039
 30
0.0
  0
VERTEX
  5
1F5E
  8
4
  6
DASHED1
 10
-611.09090080023998
 20
2045.0607241025659
 30
0.0
  0
VERTEX
  5
1F5F
  8
4
  6
DASHED1
 10
-612.05326652288829
 20
2040.2182802549039
 30
0.0
  0
SEQEND
  5
1F60
  8
4
  6
DASHED1
  0
POLYLINE
  5
19E4
  8
4
  6
DASHED1
 66
     1
 10
0.0
 20
0.0
 30
0.0
  0
VERTEX
  5
1F61
  8
4
  6
DASHED1
 10
-628.10008048773989
 20
2341.3090395322579
 30
0.0
  0
VERTEX
  5
1F62
  8
4
  6
DASHED1
 10
-631.99103507757877
 20
2338.6426943174051
 30
0.0
  0
VERTEX
  5
1F63
  8
4
  6
DASHED1
 10
-634.61548576118162
 20
2334.687286602566
 30
0.0
  0
VERTEX
  5
1F64
  8
4
  6
DASHED1
 10
-635.57704581976986
 20
2329.8456484189651
 30
0.0
  0
VERTEX
  5
1F65
  8
4
  6
DASHED1
 10
-634.61548576118162
 20
2334.687286602566
 30
0.0
  0
SEQEND
  5
1F66
  8
4
  6
DASHED1
  0
POLYLINE
  5
19E5
  8
4
  6
DASHED1
 66
     1
 10
0.0
 20
0.0
 30
0.0
  0
VERTEX
  5
1F67
  8
4
  6
DASHED1
 10
-1137.5365734076661
 20
2096.2115297666251
 30
0.0
  0
VERTEX
  5
1F68
  8
4
  6
DASHED1
 10
-1138.285035321725
 20
2099.9780092588162
 30
0.0
  0
VERTEX
  5
1F69
  8
4
  6
DASHED1
 10
-1140.3259838080501
 20
2103.0540346494358
 30
0.0
  0
VERTEX
  5
1F6A
  8
4
  6
DASHED1
 10
-1143.3526622748441
 20
2105.128216778347
 30
0.0
  0
VERTEX
  5
1F6B
  8
4
  6
DASHED1
 10
-1147.0591197943741
 20
2105.8887636533468
 30
0.0
  0
VERTEX
  5
1F6C
  8
4
  6
DASHED1
 10
-1143.3526622748441
 20
2105.128216778347
 30
0.0
  0
SEQEND
  5
1F6D
  8
4
  6
DASHED1
  0
POLYLINE
  5
19E6
  8
4
  6
DASHED1
 66
     1
 10
0.0
 20
0.0
 30
0.0
  0
VERTEX
  5
1F6E
  8
4
  6
DASHED1
 10
-1156.5812633490641
 20
2063.033075176787
 30
0.0
  0
VERTEX
  5
1F6F
  8
4
  6
DASHED1
 10
-1155.83300285102
 20
2059.2665956845972
 30
0.0
  0
VERTEX
  5
1F70
  8
4
  6
DASHED1
 10
-1153.792255780711
 20
2056.1901674619362
 30
0.0
  0
VERTEX
  5
1F71
  8
4
  6
DASHED1
 10
-1150.7657787299311
 20
2054.1159853330369
 30
0.0
  0
VERTEX
  5
1F72
  8
4
  6
DASHED1
 10
-1147.0591197943741
 20
2053.356244122097
 30
0.0
  0
VERTEX
  5
1F73
  8
4
  6
DASHED1
 10
-1143.3526622748441
 20
2054.1159853330369
 30
0.0
  0
VERTEX
  5
1F74
  8
4
  6
DASHED1
 10
-1140.3259838080501
 20
2056.1901674619362
 30
0.0
  0
VERTEX
  5
1F75
  8
4
  6
DASHED1
 10
-1138.285035321725
 20
2059.2665956845972
 30
0.0
  0
VERTEX
  5
1F76
  8
4
  6
DASHED1
 10
-1137.5365734076661
 20
2063.033075176787
 30
0.0
  0
VERTEX
  5
1F77
  8
4
  6
DASHED1
 10
-1138.285035321725
 20
2059.2665956845972
 30
0.0
  0
SEQEND
  5
1F78
  8
4
  6
DASHED1
  0
POLYLINE
  5
19E7
  8
4
  6
DASHED1
 66
     1
 10
0.0
 20
0.0
 30
0.0
  0
VERTEX
  5
1F79
  8
4
  6
DASHED1
 10
-1150.7657787299311
 20
2105.128216778347
 30
0.0
  0
VERTEX
  5
1F7A
  8
4
  6
DASHED1
 10
-1153.792255780711
 20
2103.0540346494358
 30
0.0
  0
VERTEX
  5
1F7B
  8
4
  6
DASHED1
 10
-1155.83300285102
 20
2099.9780092588162
 30
0.0
  0
VERTEX
  5
1F7C
  8
4
  6
DASHED1
 10
-1156.5812633490641
 20
2096.2115297666251
 30
0.0
  0
VERTEX
  5
1F7D
  8
4
  6
DASHED1
 10
-1155.83300285102
 20
2099.9780092588162
 30
0.0
  0
SEQEND
  5
1F7E
  8
4
  6
DASHED1
  0
POLYLINE
  5
19E8
  8
4
  6
DASHED1
 66
     1
 10
0.0
 20
0.0
 30
0.0
  0
VERTEX
  5
1F7F
  8
4
  6
DASHED1
 10
-1137.5365734076661
 20
2310.4903749814639
 30
0.0
  0
VERTEX
  5
1F80
  8
4
  6
DASHED1
 10
-1138.285035321725
 20
2314.2572573056859
 30
0.0
  0
VERTEX
  5
1F81
  8
4
  6
DASHED1
 10
-1140.3259838080501
 20
2317.333282696316
 30
0.0
  0
VERTEX
  5
1F82
  8
4
  6
DASHED1
 10
-1143.3526622748441
 20
2319.407464825214
 30
0.0
  0
VERTEX
  5
1F83
  8
4
  6
DASHED1
 10
-1147.0591197943741
 20
2320.1672060361539
 30
0.0
  0
VERTEX
  5
1F84
  8
4
  6
DASHED1
 10
-1143.3526622748441
 20
2319.407464825214
 30
0.0
  0
SEQEND
  5
1F85
  8
4
  6
DASHED1
  0
POLYLINE
  5
19E9
  8
4
  6
DASHED1
 66
     1
 10
0.0
 20
0.0
 30
0.0
  0
VERTEX
  5
1F86
  8
4
  6
DASHED1
 10
-1156.5812633490641
 20
2277.3123232236539
 30
0.0
  0
VERTEX
  5
1F87
  8
4
  6
DASHED1
 10
-1155.83300285102
 20
2273.5450380674051
 30
0.0
  0
VERTEX
  5
1F88
  8
4
  6
DASHED1
 10
-1153.792255780711
 20
2270.4686098447578
 30
0.0
  0
VERTEX
  5
1F89
  8
4
  6
DASHED1
 10
-1150.7657787299311
 20
2268.3952333799052
 30
0.0
  0
VERTEX
  5
1F8A
  8
4
  6
DASHED1
 10
-1147.0591197943741
 20
2267.6346865049049
 30
0.0
  0
VERTEX
  5
1F8B
  8
4
  6
DASHED1
 10
-1143.3526622748441
 20
2268.3952333799052
 30
0.0
  0
VERTEX
  5
1F8C
  8
4
  6
DASHED1
 10
-1140.3259838080501
 20
2270.4686098447578
 30
0.0
  0
VERTEX
  5
1F8D
  8
4
  6
DASHED1
 10
-1138.285035321725
 20
2273.5450380674051
 30
0.0
  0
VERTEX
  5
1F8E
  8
4
  6
DASHED1
 10
-1137.5365734076661
 20
2277.3123232236539
 30
0.0
  0
VERTEX
  5
1F8F
  8
4
  6
DASHED1
 10
-1138.285035321725
 20
2273.5450380674051
 30
0.0
  0
SEQEND
  5
1F90
  8
4
  6
DASHED1
  0
POLYLINE
  5
19EA
  8
4
  6
DASHED1
 66
     1
 10
0.0
 20
0.0
 30
0.0
  0
VERTEX
  5
1F91
  8
4
  6
DASHED1
 10
-1150.7657787299311
 20
2319.407464825214
 30
0.0
  0
VERTEX
  5
1F92
  8
4
  6
DASHED1
 10
-1153.792255780711
 20
2317.333282696316
 30
0.0
  0
VERTEX
  5
1F93
  8
4
  6
DASHED1
 10
-1155.83300285102
 20
2314.2572573056859
 30
0.0
  0
VERTEX
  5
1F94
  8
4
  6
DASHED1
 10
-1156.5812633490641
 20
2310.4903749814639
 30
0.0
  0
VERTEX
  5
1F95
  8
4
  6
DASHED1
 10
-1155.83300285102
 20
2314.2572573056859
 30
0.0
  0
SEQEND
  5
1F96
  8
4
  6
DASHED1
  0
POLYLINE
  5
19EB
  8
4
  6
DASHED1
 66
     1
 10
0.0
 20
0.0
 30
0.0
  0
VERTEX
  5
1F97
  8
4
  6
DASHED1
 10
-1443.6095592475051
 20
2164.730438458037
 30
0.0
  0
VERTEX
  5
1F98
  8
4
  6
DASHED1
 10
-1433.332911298284
 20
2161.3289247861539
 30
0.0
  0
VERTEX
  5
1F99
  8
4
  6
DASHED1
 10
-1426.6904125189899
 20
2152.8642153135079
 30
0.0
  0
VERTEX
  5
1F9A
  8
4
  6
DASHED1
 10
-1423.2367320990641
 20
2141.9446474424049
 30
0.0
  0
VERTEX
  5
1F9B
  8
4
  6
DASHED1
 10
-1422.524525067814
 20
2131.1777529111541
 30
0.0
  0
VERTEX
  5
1F9C
  8
4
  6
DASHED1
 10
-1424.2887279486811
 20
2121.0380678525662
 30
0.0
  0
VERTEX
  5
1F9D
  8
4
  6
DASHED1
 10
-1428.47616691352
 20
2111.4357607236539
 30
0.0
  0
VERTEX
  5
1F9E
  8
4
  6
DASHED1
 10
-1434.9587413764159
 20
2104.1340273252149
 30
0.0
  0
VERTEX
  5
1F9F
  8
4
  6
DASHED1
 10
-1443.6095592475051
 20
2100.8988832822579
 30
0.0
  0
VERTEX
  5
1FA0
  8
4
  6
DASHED1
 10
-1434.9587413764159
 20
2104.1340273252149
 30
0.0
  0
SEQEND
  5
1FA1
  8
4
  6
DASHED1
  0
POLYLINE
  5
19EC
  8
4
  6
DASHED1
 66
     1
 10
0.0
 20
0.0
 30
0.0
  0
VERTEX
  5
1FA2
  8
4
  6
DASHED1
 10
-1443.6095592475051
 20
2280.8560366025658
 30
0.0
  0
VERTEX
  5
1FA3
  8
4
  6
DASHED1
 10
-1433.332911298284
 20
2277.4545229306859
 30
0.0
  0
VERTEX
  5
1FA4
  8
4
  6
DASHED1
 10
-1426.6904125189899
 20
2268.9898134580371
 30
0.0
  0
VERTEX
  5
1FA5
  8
4
  6
DASHED1
 10
-1423.2367320990641
 20
2258.0698427549041
 30
0.0
  0
VERTEX
  5
1FA6
  8
4
  6
DASHED1
 10
-1422.524525067814
 20
2247.3037538877138
 30
0.0
  0
VERTEX
  5
1FA7
  8
4
  6
DASHED1
 10
-1424.2887279486811
 20
2237.1640688291259
 30
0.0
  0
VERTEX
  5
1FA8
  8
4
  6
DASHED1
 10
-1428.47616691352
 20
2227.5605532041259
 30
0.0
  0
VERTEX
  5
1FA9
  8
4
  6
DASHED1
 10
-1434.9587413764159
 20
2220.2600283017869
 30
0.0
  0
VERTEX
  5
1FAA
  8
4
  6
DASHED1
 10
-1443.6095592475051
 20
2217.0244814267871
 30
0.0
  0
VERTEX
  5
1FAB
  8
4
  6
DASHED1
 10
-1434.9587413764159
 20
2220.2600283017869
 30
0.0
  0
SEQEND
  5
1FAC
  8
4
  6
DASHED1
  0
POLYLINE
  5
19ED
  8
4
  6
DASHED1
 66
     1
 10
0.0
 20
0.0
 30
0.0
  0
VERTEX
  5
1FAD
  8
4
  6
DASHED1
 10
-970.21646232368141
 20
2042.296490704126
 30
0.0
  0
VERTEX
  5
1FAE
  8
4
  6
DASHED1
 10
-937.31112785102005
 20
2043.0896669736551
 30
0.0
  0
VERTEX
  5
1FAF
  8
4
  6
DASHED1
 10
-866.64069328071105
 20
2043.4622866025661
 30
0.0
  0
VERTEX
  5
1FB0
  8
4
  6
DASHED1
 10
-771.19770011665162
 20
2043.511029278347
 30
0.0
  0
VERTEX
  5
1FB1
  8
4
  6
DASHED1
 10
-663.97388419868162
 20
2043.332977520537
 30
0.0
  0
VERTEX
  5
1FB2
  8
4
  6
DASHED1
 10
-557.96098136665148
 20
2043.024811016626
 30
0.0
  0
VERTEX
  5
1FB3
  8
4
  6
DASHED1
 10
-466.15274162054999
 20
2042.6848207822579
 30
0.0
  0
VERTEX
  5
1FB4
  8
4
  6
DASHED1
 10
-401.54009513618161
 20
2042.409283672876
 30
0.0
  0
VERTEX
  5
1FB5
  8
4
  6
DASHED1
 10
-377.11558341743171
 20
2042.296490704126
 30
0.0
  0
SEQEND
  5
1FB6
  8
4
  6
DASHED1
  0
LINE
  5
19EE
  8
4
  6
DASHED1
 10
-1459.9335216498439
 20
2164.730438458037
 30
0.0
 11
-1459.9335216498439
 21
2100.8988832822579
 31
0.0
  0
LINE
  5
19EF
  8
4
  6
DASHED1
 10
-1459.9335216498439
 20
2100.8988832822579
 30
0.0
 11
-1443.6095592475051
 21
2100.8988832822579
 31
0.0
  0
LINE
  5
19F0
  8
4
  6
DASHED1
 10
-1443.6095592475051
 20
2100.8988832822579
 30
0.0
 11
-1443.6095592475051
 21
2164.730438458037
 31
0.0
  0
LINE
  5
19F1
  8
4
  6
DASHED1
 10
-1443.6095592475051
 20
2164.730438458037
 30
0.0
 11
-1443.6095592475051
 21
2100.8988832822579
 31
0.0
  0
LINE
  5
19F2
  8
4
  6
DASHED1
 10
-1459.9335216498439
 20
2164.730438458037
 30
0.0
 11
-1443.6095592475051
 21
2164.730438458037
 31
0.0
  0
LINE
  5
19F3
  8
4
  6
DASHED1
 10
-1459.9335216498439
 20
2280.8560366025658
 30
0.0
 11
-1459.9335216498439
 21
2217.0244814267871
 31
0.0
  0
LINE
  5
19F4
  8
4
  6
DASHED1
 10
-1459.9335216498439
 20
2280.8560366025658
 30
0.0
 11
-1443.6095592475051
 21
2280.8560366025658
 31
0.0
  0
LINE
  5
19F5
  8
4
  6
DASHED1
 10
-1443.6095592475051
 20
2217.0244814267871
 30
0.0
 11
-1443.6095592475051
 21
2280.8560366025658
 31
0.0
  0
LINE
  5
19F6
  8
4
  6
DASHED1
 10
-1443.6095592475051
 20
2280.8560366025658
 30
0.0
 11
-1443.6095592475051
 21
2217.0244814267871
 31
0.0
  0
LINE
  5
19F7
  8
4
  6
DASHED1
 10
-1459.9335216498439
 20
2217.0244814267871
 30
0.0
 11
-1443.6095592475051
 21
2217.0244814267871
 31
0.0
  0
POLYLINE
  5
19F8
  8
4
  6
DASHED1
 66
     1
 10
0.0
 20
0.0
 30
0.0
  0
VERTEX
  5
1FB7
  8
4
  6
DASHED1
 10
-303.6579540228883
 20
1964.8794252744351
 30
0.0
  0
VERTEX
  5
1FB8
  8
4
  6
DASHED1
 10
-1223.236872479931
 20
1964.8794252744351
 30
0.0
  0
VERTEX
  5
1FB9
  8
4
  6
DASHED1
 10
-1265.470789716255
 20
1966.0246767392871
 30
0.0
  0
VERTEX
  5
1FBA
  8
4
  6
DASHED1
 10
-1309.107972333446
 20
1968.854168926787
 30
0.0
  0
VERTEX
  5
1FBB
  8
4
  6
DASHED1
 10
-1345.857935712344
 20
1972.4615297666251
 30
0.0
  0
VERTEX
  5
1FBC
  8
4
  6
DASHED1
 10
-1367.4316051459459
 20
1975.9395815244361
 30
0.0
  0
VERTEX
  5
1FBD
  8
4
  6
DASHED1
 10
-1380.8648448920339
 20
1979.826910626007
 30
0.0
  0
VERTEX
  5
1FBE
  8
4
  6
DASHED1
 10
-1396.3386302924309
 20
1988.3814516416251
 30
0.0
  0
VERTEX
  5
1FBF
  8
4
  6
DASHED1
 10
-1410.2816539740641
 20
2006.266388165066
 30
0.0
  0
VERTEX
  5
1FC0
  8
4
  6
DASHED1
 10
-1419.12361564399
 20
2038.148529278347
 30
0.0
  0
VERTEX
  5
1FC1
  8
4
  6
DASHED1
 10
-1421.5333568549311
 20
2064.7986879697442
 30
0.0
  0
VERTEX
  5
1FC2
  8
4
  6
DASHED1
 10
-1423.608546063916
 20
2101.7847109189638
 30
0.0
  0
VERTEX
  5
1FC3
  8
4
  6
DASHED1
 10
-1425.2692211127389
 20
2145.314740215847
 30
0.0
  0
VERTEX
  5
1FC4
  8
4
  6
DASHED1
 10
-1426.4352184271961
 20
2191.6005434384938
 30
0.0
  0
VERTEX
  5
1FC5
  8
4
  6
DASHED1
 10
-1427.0281871771961
 20
2236.848248516626
 30
0.0
  0
VERTEX
  5
1FC6
  8
4
  6
DASHED1
 10
-1426.9667552924309
 20
2277.2684145322578
 30
0.0
  0
VERTEX
  5
1FC7
  8
4
  6
DASHED1
 10
-1426.1723705268
 20
2309.0699892392872
 30
0.0
  0
VERTEX
  5
1FC8
  8
4
  6
DASHED1
 10
-1424.5648693060939
 20
2328.4619203916259
 30
0.0
  0
VERTEX
  5
1FC9
  8
4
  6
DASHED1
 10
-1418.7836254096089
 20
2352.3740297666259
 30
0.0
  0
VERTEX
  5
1FCA
  8
4
  6
DASHED1
 10
-1405.8605724310939
 20
2374.6014955869359
 30
0.0
  0
VERTEX
  5
1FCB
  8
4
  6
DASHED1
 10
-1380.1844615912551
 20
2392.4215761533469
 30
0.0
  0
VERTEX
  5
1FCC
  8
4
  6
DASHED1
 10
-1336.1440441107841
 20
2403.1139467588159
 30
0.0
  0
VERTEX
  5
1FCD
  8
4
  6
DASHED1
 10
-1285.0256664252399
 20
2407.7154970517872
 30
0.0
  0
VERTEX
  5
1FCE
  8
4
  6
DASHED1
 10
-1242.4519603705501
 20
2409.8529238095971
 30
0.0
  0
VERTEX
  5
1FCF
  8
4
  6
DASHED1
 10
-1209.315198895946
 20
2410.6960512509941
 30
0.0
  0
VERTEX
  5
1FD0
  8
4
  6
DASHED1
 10
-1186.5084606146961
 20
2411.408661114287
 30
0.0
  0
VERTEX
  5
1FD1
  8
4
  6
DASHED1
 10
-1173.15800285102
 20
2411.6358583799051
 30
0.0
  0
VERTEX
  5
1FD2
  8
4
  6
DASHED1
 10
-1143.3397716498439
 20
2411.805047833037
 30
0.0
  0
VERTEX
  5
1FD3
  8
4
  6
DASHED1
 10
-1099.3974437689899
 20
2411.9214662900658
 30
0.0
  0
VERTEX
  5
1FD4
  8
4
  6
DASHED1
 10
-1043.6744945502401
 20
2411.9919618955369
 30
0.0
  0
VERTEX
  5
1FD5
  8
4
  6
DASHED1
 10
-978.51439933538836
 20
2412.020965801787
 30
0.0
  0
VERTEX
  5
1FD6
  8
4
  6
DASHED1
 10
-906.26043205023984
 20
2412.0153261533469
 30
0.0
  0
VERTEX
  5
1FD7
  8
4
  6
DASHED1
 10
-829.25586662055014
 20
2411.982293926787
 30
0.0
  0
VERTEX
  5
1FD8
  8
4
  6
DASHED1
 10
-749.84437980413827
 20
2411.9271059384942
 30
0.0
  0
VERTEX
  5
1FD9
  8
4
  6
DASHED1
 10
-670.36884269476991
 20
2411.8554018369359
 30
0.0
  0
VERTEX
  5
1FDA
  8
4
  6
DASHED1
 10
-593.17333488226996
 20
2411.773224102566
 30
0.0
  0
VERTEX
  5
1FDB
  8
4
  6
DASHED1
 10
-520.60072746038838
 20
2411.6866152158468
 30
0.0
  0
VERTEX
  5
1FDC
  8
4
  6
DASHED1
 10
-454.99389152288842
 20
2411.602826153347
 30
0.0
  0
VERTEX
  5
1FDD
  8
4
  6
DASHED1
 10
-323.40679435493161
 20
2411.4235658994362
 30
0.0
  0
VERTEX
  5
1FDE
  8
4
  6
DASHED1
 10
-309.09940910101989
 20
2411.408661114287
 30
0.0
  0
VERTEX
  5
1FDF
  8
4
  6
DASHED1
 10
-286.61171378851992
 20
2410.458783184597
 30
0.0
  0
VERTEX
  5
1FE0
  8
4
  6
DASHED1
 10
-268.96968497993169
 20
2404.8416933408471
 30
0.0
  0
VERTEX
  5
1FE1
  8
4
  6
DASHED1
 10
-257.44949455023988
 20
2390.413055645537
 30
0.0
  0
VERTEX
  5
1FE2
  8
4
  6
DASHED1
 10
-253.32610587835831
 20
2363.0241030088159
 30
0.0
  0
VERTEX
  5
1FE3
  8
4
  6
DASHED1
 10
-253.32610587835831
 20
2013.265191876008
 30
0.0
  0
VERTEX
  5
1FE4
  8
4
  6
DASHED1
 10
-256.59951896429999
 20
1991.707635723654
 30
0.0
  0
VERTEX
  5
1FE5
  8
4
  6
DASHED1
 10
-266.24895744085819
 20
1976.6300356260069
 30
0.0
  0
VERTEX
  5
1FE6
  8
4
  6
DASHED1
 10
-282.0206371283582
 20
1967.7741762509929
 30
0.0
  0
VERTEX
  5
1FE7
  8
4
  6
DASHED1
 10
-303.6579540228883
 20
1964.8794252744351
 30
0.0
  0
SEQEND
  5
1FE8
  8
4
  6
DASHED1
  0
ENDBLK
  5
19AC
  8
0
  0
BLOCK
  8
0
  2
CAR2
 70
     0
 10
0.0
 20
0.0
 30
0.0
  3
CAR2
  1

  0
LINE
  5
19FD
  8
_0-0_
  6
CONTINUOUS
 62
     7
 10
-1042.5887870695281
 20
1097.507635990454
 30
0.0
 11
-864.9584870775916
 21
1151.2210019068659
 31
0.0
  0
LINE
  5
19FE
  8
_0-0_
  6
CONTINUOUS
 62
     7
 10
-626.22493300634869
 20
1154.3439690665
 30
0.0
 11
-864.9584870775916
 21
1151.2210019068659
 31
0.0
  0
LINE
  5
19FF
  8
_0-0_
  6
CONTINUOUS
 62
     7
 10
-735.15384253916716
 20
1142.9584822393299
 30
0.0
 11
-628.34451307318966
 21
1144.08771604253
 31
0.0
  0
LINE
  5
1A00
  8
_0-0_
  6
CONTINUOUS
 62
     7
 10
-735.15384253916716
 20
1142.9584822393299
 30
0.0
 11
-735.15384253916716
 21
1097.507635990454
 31
0.0
  0
LINE
  5
1A01
  8
_0-0_
  6
CONTINUOUS
 62
     7
 10
-861.32398725269638
 20
1141.624557636698
 30
0.0
 11
-747.44569497666816
 21
1142.828527530824
 31
0.0
  0
LINE
  5
1A02
  8
_0-0_
  6
CONTINUOUS
 62
     7
 10
-747.44569497666816
 20
1142.828527530824
 30
0.0
 11
-747.44569497666816
 21
1097.507635990454
 31
0.0
  0
LINE
  5
1A03
  8
_0-0_
  6
CONTINUOUS
 62
     7
 10
-628.34451307318966
 20
1448.782900732811
 30
0.0
 11
-735.15384253916716
 21
1449.9121345360111
 31
0.0
  0
LINE
  5
1A04
  8
_0-0_
  6
CONTINUOUS
 62
     7
 10
-735.15384253916716
 20
1449.9121345360111
 30
0.0
 11
-735.15384253916716
 21
1495.3629807848861
 31
0.0
  0
LINE
  5
1A05
  8
_0-0_
  6
CONTINUOUS
 62
     7
 10
-747.44569497666816
 20
1450.042089244514
 30
0.0
 11
-747.44569497666816
 21
1495.3629807848861
 31
0.0
  0
LINE
  5
1A06
  8
_0-0_
  6
CONTINUOUS
 62
     7
 10
-747.44569497666816
 20
1450.042089244514
 30
0.0
 11
-861.32398725269638
 21
1451.2460591386409
 31
0.0
  0
LINE
  5
1A07
  8
_0-0_
  6
CONTINUOUS
 62
     7
 10
-987.51995475206331
 20
1103.4643440933071
 30
0.0
 11
-861.32398725269638
 21
1141.624557636698
 31
0.0
  0
ARC
  5
1A08
  8
_0-0_
  6
CONTINUOUS
 62
     7
 10
-1009.334140943803
 20
1095.9842161773211
 30
0.0
 40
10.0
 50
90.0
 51
180.0
  0
LINE
  5
1A09
  8
_0-0_
  6
CONTINUOUS
 62
     7
 10
-1009.334140943803
 20
1105.9842161773211
 30
0.0
 11
-987.51995475206331
 21
1105.9842161773211
 31
0.0
  0
LINE
  5
1A0A
  8
_0-0_
  6
CONTINUOUS
 62
     7
 10
-1019.334140943803
 20
1095.9842161773211
 30
0.0
 11
-1019.334140943803
 21
1089.38534160312
 31
0.0
  0
LINE
  5
1A0B
  8
_0-0_
  6
CONTINUOUS
 62
     7
 10
-1018.9834653844611
 20
1085.490153149691
 30
0.0
 11
-1019.334140943803
 21
1089.38534160312
 31
0.0
  0
LINE
  5
1A0C
  8
_0-0_
  6
CONTINUOUS
 62
     7
 10
-1017.155344038524
 20
1077.8312895201891
 30
0.0
 11
-1018.9834653844611
 21
1085.490153149691
 31
0.0
  0
LINE
  5
1A0D
  8
_0-0_
  6
CONTINUOUS
 62
     7
 10
-1013.8772762833059
 20
1070.57448618484
 30
0.0
 11
-1017.155344038524
 21
1077.8312895201891
 31
0.0
  0
LINE
  5
1A0E
  8
_0-0_
  6
CONTINUOUS
 62
     7
 10
-1009.2488645487661
 20
1063.9402374408689
 30
0.0
 11
-1013.8772762833059
 21
1070.57448618484
 31
0.0
  0
LINE
  5
1A0F
  8
_0-0_
  6
CONTINUOUS
 62
     7
 10
-1003.410740783372
 20
1058.1301215792701
 30
0.0
 11
-1009.2488645487661
 21
1063.9402374408689
 31
0.0
  0
LINE
  5
1A10
  8
_0-0_
  6
CONTINUOUS
 62
     7
 10
-1003.410740783372
 20
1058.1301215792701
 30
0.0
 11
-1003.410740783372
 21
1058.1301215792701
 31
0.0
  0
LINE
  5
1A11
  8
_0-0_
  6
CONTINUOUS
 62
     7
 10
-987.51995475206331
 20
1105.9842161773211
 30
0.0
 11
-987.51995475206331
 21
1062.126981670164
 31
0.0
  0
LINE
  5
1A12
  8
_0-0_
  6
CONTINUOUS
 62
     7
 10
-987.61201976880966
 20
1061.179904509168
 30
0.0
 11
-987.51995475206422
 21
1062.126981670164
 31
0.0
  0
LINE
  5
1A13
  8
_0-0_
  6
CONTINUOUS
 62
     7
 10
-987.88541747010095
 20
1060.261603808465
 30
0.0
 11
-987.61201976880966
 21
1061.179904509168
 31
0.0
  0
LINE
  5
1A14
  8
_0-0_
  6
CONTINUOUS
 62
     7
 10
-988.33184080513001
 20
1059.399981670163
 30
0.0
 11
-987.88541747010095
 21
1060.261603808465
 31
0.0
  0
LINE
  5
1A15
  8
_0-0_
  6
CONTINUOUS
 62
     7
 10
-988.93772542676277
 20
1058.621218046934
 30
0.0
 11
-988.33184080513001
 21
1059.399981670163
 31
0.0
  0
LINE
  5
1A16
  8
_0-0_
  6
CONTINUOUS
 62
     7
 10
-989.68466183736382
 20
1057.9489752773909
 30
0.0
 11
-988.93772542676277
 21
1058.621218046934
 31
0.0
  0
LINE
  5
1A17
  8
_0-0_
  6
CONTINUOUS
 62
     7
 10
-990.54995475206385
 20
1057.4036791179219
 30
0.0
 11
-989.68466183736382
 21
1057.9489752773909
 31
0.0
  0
LINE
  5
1A18
  8
_0-0_
  6
CONTINUOUS
 62
     7
 10
-991.50731268351046
 20
1057.0018981163969
 30
0.0
 11
-990.54995475206385
 21
1057.4036791179219
 31
0.0
  0
LINE
  5
1A19
  8
_0-0_
  6
CONTINUOUS
 62
     7
 10
-992.52764679540178
 20
1056.755840185235
 30
0.0
 11
-991.50731268351046
 21
1057.0018981163969
 31
0.0
  0
LINE
  5
1A1A
  8
_0-0_
  6
CONTINUOUS
 62
     7
 10
-993.57995475206371
 20
1056.672981670162
 30
0.0
 11
-992.52764679540178
 21
1056.755840185235
 31
0.0
  0
LINE
  5
1A1B
  8
_0-0_
  6
CONTINUOUS
 62
     7
 10
-993.57995475206371
 20
1056.672981670162
 30
0.0
 11
-993.57995475206371
 21
1056.672981670162
 31
0.0
  0
LINE
  5
1A1C
  8
_0-0_
  6
CONTINUOUS
 62
     7
 10
-993.57995475206371
 20
1056.6729816701641
 30
0.0
 11
-999.28745170102866
 21
1056.6729816701641
 31
0.0
  0
LINE
  5
1A1D
  8
_0-0_
  6
CONTINUOUS
 62
     7
 10
-1003.182744615729
 20
1057.9489752773909
 30
0.0
 11
-1003.4107407833729
 21
1058.1301215792701
 31
0.0
  0
LINE
  5
1A1E
  8
_0-0_
  6
CONTINUOUS
 62
     7
 10
-1002.3174517010279
 20
1057.4036791179219
 30
0.0
 11
-1003.182744615729
 21
1057.9489752773909
 31
0.0
  0
LINE
  5
1A1F
  8
_0-0_
  6
CONTINUOUS
 62
     7
 10
-1001.360093769582
 20
1057.0018981163969
 30
0.0
 11
-1002.3174517010279
 21
1057.4036791179219
 31
0.0
  0
LINE
  5
1A20
  8
_0-0_
  6
CONTINUOUS
 62
     7
 10
-1000.33975965769
 20
1056.755840185235
 30
0.0
 11
-1001.360093769582
 21
1057.0018981163969
 31
0.0
  0
LINE
  5
1A21
  8
_0-0_
  6
CONTINUOUS
 62
     7
 10
-999.28745170102866
 20
1056.672981670162
 30
0.0
 11
-1000.33975965769
 21
1056.755840185235
 31
0.0
  0
LINE
  5
1A22
  8
_0-0_
  6
CONTINUOUS
 62
     7
 10
-999.28745170102866
 20
1056.672981670162
 30
0.0
 11
-999.28745170102866
 21
1056.672981670162
 31
0.0
  0
LINE
  5
1A23
  8
_0-0_
  6
CONTINUOUS
 62
     7
 10
-861.32398725269638
 20
1451.2460591386409
 30
0.0
 11
-987.51995475206331
 21
1489.4062726820339
 31
0.0
  0
ARC
  5
1A24
  8
_0-0_
  6
CONTINUOUS
 62
     7
 10
-1009.334140943803
 20
1496.886400598017
 30
0.0
 40
10.0
 50
180.0
 51
270.0
  0
LINE
  5
1A25
  8
_0-0_
  6
CONTINUOUS
 62
     7
 10
-1009.334140943803
 20
1486.8864005980181
 30
0.0
 11
-987.51995475206331
 21
1486.8864005980181
 31
0.0
  0
LINE
  5
1A26
  8
_0-0_
  6
CONTINUOUS
 62
     7
 10
-1019.334140943803
 20
1496.886400598017
 30
0.0
 11
-1019.334140943803
 21
1503.485275172221
 31
0.0
  0
LINE
  5
1A27
  8
_0-0_
  6
CONTINUOUS
 62
     7
 10
-1006.461350375008
 20
1531.959476640528
 30
0.0
 11
-1003.410740783372
 21
1534.7404951960691
 31
0.0
  0
LINE
  5
1A28
  8
_0-0_
  6
CONTINUOUS
 62
     7
 10
-1011.716552076881
 20
1525.7148511829801
 30
0.0
 11
-1006.461350375008
 21
1531.959476640528
 31
0.0
  0
LINE
  5
1A29
  8
_0-0_
  6
CONTINUOUS
 62
     7
 10
-1015.6870623110671
 20
1518.743795038805
 30
0.0
 11
-1011.716552076881
 21
1525.7148511829801
 31
0.0
  0
LINE
  5
1A2A
  8
_0-0_
  6
CONTINUOUS
 62
     7
 10
-1018.252239133275
 20
1511.2581202214201
 30
0.0
 11
-1015.6870623110671
 21
1518.743795038805
 31
0.0
  0
LINE
  5
1A2B
  8
_0-0_
  6
CONTINUOUS
 62
     7
 10
-1019.334140943803
 20
1503.485275172221
 30
0.0
 11
-1018.252239133275
 21
1511.2581202214201
 31
0.0
  0
LINE
  5
1A2C
  8
_0-0_
  6
CONTINUOUS
 62
     7
 10
-1019.334140943803
 20
1503.485275172221
 30
0.0
 11
-1019.334140943803
 21
1503.485275172221
 31
0.0
  0
LINE
  5
1A2D
  8
_0-0_
  6
CONTINUOUS
 62
     7
 10
-987.51995475206331
 20
1486.8864005980181
 30
0.0
 11
-987.51995475206331
 21
1530.7436351051761
 31
0.0
  0
LINE
  5
1A2E
  8
_0-0_
  6
CONTINUOUS
 62
     7
 10
-992.52764679540178
 20
1536.1147765901039
 30
0.0
 11
-993.57995475206371
 21
1536.197635105176
 31
0.0
  0
LINE
  5
1A2F
  8
_0-0_
  6
CONTINUOUS
 62
     7
 10
-991.50731268351046
 20
1535.8687186589409
 30
0.0
 11
-992.52764679540178
 21
1536.1147765901039
 31
0.0
  0
LINE
  5
1A30
  8
_0-0_
  6
CONTINUOUS
 62
     7
 10
-990.54995475206385
 20
1535.4669376574161
 30
0.0
 11
-991.50731268351046
 21
1535.8687186589409
 31
0.0
  0
LINE
  5
1A31
  8
_0-0_
  6
CONTINUOUS
 62
     7
 10
-989.68466183736382
 20
1534.9216414979469
 30
0.0
 11
-990.54995475206385
 21
1535.4669376574161
 31
0.0
  0
LINE
  5
1A32
  8
_0-0_
  6
CONTINUOUS
 62
     7
 10
-988.93772542676277
 20
1534.249398728407
 30
0.0
 11
-989.68466183736382
 21
1534.9216414979469
 31
0.0
  0
LINE
  5
1A33
  8
_0-0_
  6
CONTINUOUS
 62
     7
 10
-988.33184080513001
 20
1533.470635105175
 30
0.0
 11
-988.93772542676277
 21
1534.249398728407
 31
0.0
  0
LINE
  5
1A34
  8
_0-0_
  6
CONTINUOUS
 62
     7
 10
-987.88541747010095
 20
1532.609012966873
 30
0.0
 11
-988.33184080513001
 21
1533.470635105175
 31
0.0
  0
LINE
  5
1A35
  8
_0-0_
  6
CONTINUOUS
 62
     7
 10
-987.61201976880966
 20
1531.6907122661721
 30
0.0
 11
-987.88541747010095
 21
1532.609012966873
 31
0.0
  0
LINE
  5
1A36
  8
_0-0_
  6
CONTINUOUS
 62
     7
 10
-987.51995475206422
 20
1530.7436351051761
 30
0.0
 11
-987.61201976880966
 21
1531.6907122661721
 31
0.0
  0
LINE
  5
1A37
  8
_0-0_
  6
CONTINUOUS
 62
     7
 10
-987.51995475206422
 20
1530.7436351051761
 30
0.0
 11
-987.51995475206422
 21
1530.7436351051761
 31
0.0
  0
LINE
  5
1A38
  8
_0-0_
  6
CONTINUOUS
 62
     7
 10
-993.57995475206371
 20
1536.197635105174
 30
0.0
 11
-999.28745170102866
 21
1536.197635105174
 31
0.0
  0
LINE
  5
1A39
  8
_0-0_
  6
CONTINUOUS
 62
     7
 10
-999.5914831187356
 20
1536.1907667876869
 30
0.0
 11
-999.28745170102866
 21
1536.197635105176
 31
0.0
  0
LINE
  5
1A3A
  8
_0-0_
  6
CONTINUOUS
 62
     7
 10
-1000.637846965211
 20
1536.060497566315
 30
0.0
 11
-999.5914831187356
 21
1536.1907667876869
 31
0.0
  0
LINE
  5
1A3B
  8
_0-0_
  6
CONTINUOUS
 62
     7
 10
-1001.643179734919
 20
1535.7686781695261
 30
0.0
 11
-1000.637846965211
 21
1536.060497566315
 31
0.0
  0
LINE
  5
1A3C
  8
_0-0_
  6
CONTINUOUS
 62
     7
 10
-1002.576934900373
 20
1535.3241753820221
 30
0.0
 11
-1001.643179734919
 21
1535.7686781695261
 31
0.0
  0
LINE
  5
1A3D
  8
_0-0_
  6
CONTINUOUS
 62
     7
 10
-1003.4107407833729
 20
1534.7404951960691
 30
0.0
 11
-1002.576934900373
 21
1535.3241753820221
 31
0.0
  0
LINE
  5
1A3E
  8
_0-0_
  6
CONTINUOUS
 62
     7
 10
-1003.4107407833729
 20
1534.7404951960691
 30
0.0
 11
-1003.4107407833729
 21
1534.7404951960691
 31
0.0
  0
LINE
  5
1A3F
  8
_0-0_
  6
CONTINUOUS
 62
     7
 10
-628.34451307318966
 20
1144.08771604253
 30
0.0
 11
-523.53897448226326
 21
1097.507635990454
 31
0.0
  0
LINE
  5
1A40
  8
_0-0_
  6
CONTINUOUS
 62
     7
 10
-523.53897448226326
 20
1495.3629807848861
 30
0.0
 11
-628.34451307318966
 21
1448.782900732811
 31
0.0
  0
LINE
  5
1A41
  8
_0-0_
  6
CONTINUOUS
 62
     7
 10
-1042.5887870695281
 20
1097.507635990454
 30
0.0
 11
-1019.334140943803
 21
1097.507635990454
 31
0.0
  0
LINE
  5
1A42
  8
_0-0_
  6
CONTINUOUS
 62
     7
 10
-987.51995475206331
 20
1097.507635990454
 30
0.0
 11
-498.3316061302184
 21
1097.507635990454
 31
0.0
  0
LINE
  5
1A43
  8
_0-0_
  6
CONTINUOUS
 62
     7
 10
-987.51995475206331
 20
1495.3629807848861
 30
0.0
 11
-498.3316061302184
 21
1495.3629807848861
 31
0.0
  0
LINE
  5
1A44
  8
_0-0_
  6
CONTINUOUS
 62
     7
 10
-1080.254111202767
 20
1109.85809465529
 30
0.0
 11
-1403.356079416096
 21
1204.018819528512
 31
0.0
  0
LINE
  5
1A45
  8
_0-0_
  6
CONTINUOUS
 62
     7
 10
-1402.109998639896
 20
1389.2149391669659
 30
0.0
 11
-1080.254111202767
 21
1483.012522120049
 31
0.0
  0
LINE
  5
1A46
  8
_0-0_
  6
CONTINUOUS
 62
     7
 10
-1420.267514481214
 20
1212.1221007628319
 30
0.0
 11
-1411.616950670141
 21
1206.426262694725
 31
0.0
  0
LINE
  5
1A47
  8
_0-0_
  6
CONTINUOUS
 62
     7
 10
-1411.616950670141
 20
1386.4443540806151
 30
0.0
 11
-1420.8293036674011
 21
1380.3786140843979
 31
0.0
  0
ARC
  5
1A48
  8
_0-0_
  6
CONTINUOUS
 62
     7
 10
-977.43848269498085
 20
1296.4353083876699
 30
0.0
 40
378.86792711309482
 50
337.97309875480681
 51
22.02619934069379
  0
ARC
  5
1A49
  8
_0-0_
  6
CONTINUOUS
 62
     7
 10
-839.22111635490285
 20
1296.4353083876699
 30
0.0
 40
394.68777234950119
 50
329.7339477538784
 51
30.266052246121649
  0
ARC
  5
1A4A
  8
_0-0_
  6
CONTINUOUS
 62
     7
 10
-502.76548031201668
 20
1293.4064858901579
 30
0.0
 40
389.20623354009678
 50
157.71089172379999
 51
201.42761230488099
  0
ARC
  5
1A4B
  8
_0-0_
  6
CONTINUOUS
 62
     7
 10
-545.48220106981444
 20
1296.4353083876699
 30
0.0
 40
535.43262960367667
 50
158.19003295885
 51
201.80996704115
  0
LINE
  5
1A4C
  8
_0-0_
  6
CONTINUOUS
 62
     7
 10
-1279.400080535853
 20
1094.5799676834099
 30
0.0
 11
-1019.334140943803
 21
1086.6491092134379
 31
0.0
  0
LINE
  5
1A4D
  8
_0-0_
  6
CONTINUOUS
 62
     7
 10
-1019.334140943803
 20
1506.2215075619019
 30
0.0
 11
-1279.400080804844
 21
1498.2906490837281
 31
0.0
  0
ARC
  5
1A4E
  8
_0-0_
  6
CONTINUOUS
 62
     7
 10
-1381.964109228129
 20
1122.7179961851521
 30
0.0
 40
25.0
 50
188.86815367111831
 51
268.25401738603921
  0
LINE
  5
1A4F
  8
_0-0_
  6
CONTINUOUS
 62
     7
 10
-1382.7258199587041
 20
1097.7296029442309
 30
0.0
 11
-1279.400080535853
 21
1094.5799676834099
 31
0.0
  0
LINE
  5
1A50
  8
_0-0_
  6
CONTINUOUS
 62
     7
 10
-1421.3245804888541
 20
1212.818110518763
 30
0.0
 11
-1406.6652518479291
 21
1118.863965402152
 31
0.0
  0
ARC
  5
1A51
  8
_0-0_
  6
CONTINUOUS
 62
     7
 10
-1381.964109228129
 20
1470.152620590188
 30
0.0
 40
25.0
 50
91.745982613960877
 51
171.13184632888161
  0
LINE
  5
1A52
  8
_0-0_
  6
CONTINUOUS
 62
     7
 10
-1279.400080804844
 20
1498.2906490837281
 30
0.0
 11
-1382.7258199587041
 21
1495.141013831111
 31
0.0
  0
LINE
  5
1A53
  8
_0-0_
  6
CONTINUOUS
 62
     7
 10
-1406.6652518479291
 20
1474.006651373189
 30
0.0
 11
-1421.3245804888541
 21
1380.052506256576
 31
0.0
  0
LINE
  5
1A54
  8
_0-0_
  6
CONTINUOUS
 62
     7
 10
-1421.3245804888541
 20
1380.052506256576
 30
0.0
 11
-1421.3245804888541
 21
1212.818110518763
 31
0.0
  0
LINE
  5
1A55
  8
_0-0_
  6
CONTINUOUS
 62
     7
 10
-987.51995475206331
 20
1086.564680531508
 30
0.0
 11
-503.39247163760592
 21
1086.564680531508
 31
0.0
  0
LINE
  5
1A56
  8
_0-0_
  6
CONTINUOUS
 62
     7
 10
-503.39247163760592
 20
1506.3059362438321
 30
0.0
 11
-987.51995475206331
 21
1506.3059362438321
 31
0.0
  0
ARC
  5
1A57
  8
_0-0_
  6
CONTINUOUS
 62
     7
 10
-292.25397153238191
 20
1124.0332443618411
 30
0.0
 40
25.0
 50
273.36792078534148
 51
0.0
  0
LINE
  5
1A58
  8
_0-0_
  6
CONTINUOUS
 62
     7
 10
-503.39247163760592
 20
1086.564680531508
 30
0.0
 11
-290.78528498508422
 21
1099.076422452275
 31
0.0
  0
LINE
  5
1A59
  8
_0-0_
  6
CONTINUOUS
 62
     7
 10
-267.25397153238191
 20
1124.0332443618411
 30
0.0
 11
-267.25397153238191
 21
1468.8373724134981
 31
0.0
  0
LINE
  5
1A5A
  8
_0-0_
  6
CONTINUOUS
 62
     7
 10
-290.78528498508422
 20
1493.7941943230651
 30
0.0
 11
-503.39247163760592
 21
1506.3059362438321
 31
0.0
  0
ARC
  5
1A5B
  8
_0-0_
  6
CONTINUOUS
 62
     7
 10
-292.25397153238191
 20
1468.8373724134981
 30
0.0
 40
25.0
 50
0.0
 51
86.632079214658489
  0
LINE
  5
1A5C
  8
_0-0_
  6
CONTINUOUS
 62
     7
 10
-1042.5887870695281
 20
1495.3629807848861
 30
0.0
 11
-1019.334140943803
 21
1495.3629807848861
 31
0.0
  0
ARC
  5
1A5D
  8
_0-0_
  6
CONTINUOUS
 62
     7
 10
-1374.0695916479769
 20
1133.212558916058
 30
0.0
 40
25.0
 50
189.46248888141659
 51
268.15256373287463
  0
LINE
  5
1A5E
  8
_0-0_
  6
CONTINUOUS
 62
     7
 10
-1374.875548116371
 20
1108.2255536098801
 30
0.0
 11
-1042.5887870695281
 21
1097.507635990454
 31
0.0
  0
LINE
  5
1A5F
  8
_0-0_
  6
CONTINUOUS
 62
     7
 10
-1411.616950670141
 20
1206.426262694725
 30
0.0
 11
-1398.7294277877691
 21
1129.102512497999
 31
0.0
  0
ARC
  5
1A60
  8
_0-0_
  6
CONTINUOUS
 62
     7
 10
-1374.0695916479769
 20
1459.65805785928
 30
0.0
 40
25.0
 50
91.847436267125403
 51
170.53751111858341
  0
LINE
  5
1A61
  8
_0-0_
  6
CONTINUOUS
 62
     7
 10
-1398.7294277877691
 20
1463.7681042773399
 30
0.0
 11
-1411.616950670141
 21
1386.4443540806151
 31
0.0
  0
LINE
  5
1A62
  8
_0-0_
  6
CONTINUOUS
 62
     7
 10
-1042.5887870695281
 20
1495.3629807848861
 30
0.0
 11
-1374.875548116371
 21
1484.6450631654591
 31
0.0
  0
ARC
  5
1A63
  8
_0-0_
  6
CONTINUOUS
 62
     7
 10
-297.81643641949182
 20
1133.200014791433
 30
0.0
 40
25.0
 50
273.04232614712089
 51
0.0
  0
LINE
  5
1A64
  8
_0-0_
  6
CONTINUOUS
 62
     7
 10
-272.81643641949182
 20
1133.200014791433
 30
0.0
 11
-272.81643641949182
 21
1459.670601983906
 31
0.0
  0
LINE
  5
1A65
  8
_0-0_
  6
CONTINUOUS
 62
     7
 10
-498.3316061302184
 20
1097.507635990454
 30
0.0
 11
-296.48959491653841
 21
1108.2352497890131
 31
0.0
  0
LINE
  5
1A66
  8
_0-0_
  6
CONTINUOUS
 62
     7
 10
-296.48959491653841
 20
1484.6353669863249
 30
0.0
 11
-498.3316061302184
 21
1495.3629807848861
 31
0.0
  0
LINE
  5
1A67
  8
_0-0_
  6
CONTINUOUS
 62
     7
 10
-626.22367983146523
 20
1154.3483632184491
 30
0.0
 11
-498.3316061302184
 21
1097.507635990454
 31
0.0
  0
LINE
  5
1A68
  8
_0-0_
  6
CONTINUOUS
 62
     7
 10
-498.3316061302184
 20
1495.3629807848861
 30
0.0
 11
-626.22367983146523
 21
1438.5222535568901
 31
0.0
  0
LINE
  5
1A69
  8
_0-0_
  6
CONTINUOUS
 62
     7
 10
-626.22367983146523
 20
1438.5222535568901
 30
0.0
 11
-862.8909004884016
 21
1441.0244003919211
 31
0.0
  0
LINE
  5
1A6A
  8
_0-0_
  6
CONTINUOUS
 62
     7
 10
-862.8909004884016
 20
1441.0244003919211
 30
0.0
 11
-1042.5887870695281
 21
1495.3629807848861
 31
0.0
  0
LINE
  5
1A6B
  8
_0-0_
  6
CONTINUOUS
 62
     7
 10
-1411.616950670141
 20
1386.4443540806151
 30
0.0
 11
-1411.616950670141
 21
1206.426262694725
 31
0.0
  0
ARC
  5
1A6C
  8
_0-0_
  6
CONTINUOUS
 62
     7
 10
-297.81643641949182
 20
1459.670601983906
 30
0.0
 40
25.0
 50
0.0
 51
86.957673852879083
  0
ENDBLK
  5
19FC
  8
0
  0
BLOCK
  8
0
  2
CAR3
 70
     0
 10
0.0
 20
0.0
 30
0.0
  3
CAR3
  1

  0
LINE
  5
1A71
  8
_0-0_
  6
CONTINUOUS
 62
     7
 10
-421.52126784123863
 20
264.04564866982309
 30
0.0
 11
-317.93606674817562
 21
253.68712856051661
 31
0.0
  0
LINE
  5
1A72
  8
_0-0_
  6
CONTINUOUS
 62
     7
 10
-421.52126784123863
 20
601.64189010117752
 30
0.0
 11
-317.93606674817562
 21
612.00041021048389
 31
0.0
  0
LINE
  5
1A73
  8
_0-0_
  6
CONTINUOUS
 62
     7
 10
-748.54815380135676
 20
228.7067508700502
 30
0.0
 11
-750.56072476428699
 21
297.13416360964487
 31
0.0
  0
LINE
  5
1A74
  8
_0-0_
  6
CONTINUOUS
 62
     7
 10
-734.64286949893221
 20
228.9155943259166
 30
0.0
 11
-736.64078543017365
 21
296.8447359881402
 31
0.0
  0
LINE
  5
1A75
  8
_0-0_
  6
CONTINUOUS
 62
     7
 10
-748.54815380135676
 20
636.98078790095042
 30
0.0
 11
-750.56072476428699
 21
568.55337516135558
 31
0.0
  0
LINE
  5
1A76
  8
_0-0_
  6
CONTINUOUS
 62
     7
 10
-734.64286949893221
 20
636.77194444508405
 30
0.0
 11
-736.64078543017365
 21
568.84280278286042
 31
0.0
  0
ARC
  5
1A77
  8
_0-0_
  6
CONTINUOUS
 62
     7
 10
-888.70436748469137
 20
7748.9480137631863
 30
0.0
 40
7542.457034123734
 50
268.8753934614374
 51
274.26731906516051
  0
ARC
  5
1A78
  8
_0-0_
  6
CONTINUOUS
 62
     7
 10
-888.70436748469137
 20
7748.9480137631863
 30
0.0
 40
7542.457034123734
 50
266.57062986742091
 51
268.73250695615383
  0
ARC
  5
1A79
  8
_0-0_
  6
CONTINUOUS
 62
     7
 10
-807.65376280232465
 20
4627.1235783217071
 30
0.0
 40
4398.8139379866134
 50
267.02474048706358
 51
274.31447580577583
  0
ARC
  5
1A7A
  8
_0-0_
  6
CONTINUOUS
 62
     7
 10
-28100.637347534921
 20
78493.682910762247
 30
0.0
 40
82789.007634378795
 50
289.07791798135759
 51
289.15312493918009
  0
ARC
  5
1A7B
  8
_0-0_
  6
CONTINUOUS
 62
     7
 10
-1074.635350870542
 20
247.40593535877721
 30
0.0
 40
4.0500000000000007
 50
89.192602243620215
 51
200.8997098118742
  0
ARC
  5
1A7C
  8
_0-0_
  6
CONTINUOUS
 62
     7
 10
-1066.0516311787469
 20
856.496501144994
 30
0.0
 40
605.10104659970841
 50
269.19260224362017
 51
272.32342436655028
  0
ARC
  5
1A7D
  8
_0-0_
  6
CONTINUOUS
 62
     7
 10
-1041.3133765864179
 20
246.78413641734099
 30
0.0
 40
5.1129723658203128
 50
1.9187684265295271
 51
92.323424366550285
  0
ARC
  5
1A7E
  8
_0-0_
  6
CONTINUOUS
 62
     7
 10
-1449.2719579913601
 20
233.11697258246119
 30
0.0
 40
413.30042380109109
 50
355.33156201233282
 51
1.9187684265295271
  0
ARC
  5
1A7F
  8
_0-0_
  6
CONTINUOUS
 62
     7
 10
-964.46476674734595
 20
289.47535116830568
 30
0.0
 40
121.97961185640111
 50
200.8997098118742
 51
229.42870809183549
  0
ARC
  5
1A80
  8
_0-0_
  6
CONTINUOUS
 62
     7
 10
-1041.2498807499101
 20
199.7977239547881
 30
0.0
 40
3.9201753210972381
 50
229.42870809183549
 51
355.33156201233282
  0
ARC
  5
1A81
  8
_0-0_
  6
CONTINUOUS
 62
     7
 10
-888.70436748469137
 20
-6883.2604749921829
 30
0.0
 40
7542.457034123734
 50
91.267493043846187
 51
93.429370132579109
  0
ARC
  5
1A82
  8
_0-0_
  6
CONTINUOUS
 62
     7
 10
-888.70436748469137
 20
-6883.2604749921829
 30
0.0
 40
7542.457034123734
 50
85.732680934839493
 51
91.124606538562645
  0
ARC
  5
1A83
  8
_0-0_
  6
CONTINUOUS
 62
     7
 10
-28100.637347534921
 20
-77627.995371991259
 30
0.0
 40
82789.007634378795
 50
70.846875060819855
 51
70.922082018642413
  0
ARC
  5
1A84
  8
_0-0_
  6
CONTINUOUS
 62
     7
 10
-807.65376280232465
 20
-3761.4360395507092
 30
0.0
 40
4398.8139379866134
 50
85.685524194224243
 51
92.975259512936404
  0
ARC
  5
1A85
  8
_0-0_
  6
CONTINUOUS
 62
     7
 10
-1074.635350870542
 20
618.28160341222156
 30
0.0
 40
4.0500000000000007
 50
159.1002901881258
 51
270.80739775637983
  0
ARC
  5
1A86
  8
_0-0_
  6
CONTINUOUS
 62
     7
 10
-1066.0516311787469
 20
9.1910376260066187
 30
0.0
 40
605.10104659970841
 50
87.676575633449715
 51
90.807397756379785
  0
ARC
  5
1A87
  8
_0-0_
  6
CONTINUOUS
 62
     7
 10
-964.46476674734595
 20
576.21218760269312
 30
0.0
 40
121.97961185640111
 50
130.5712919081644
 51
159.1002901881258
  0
ARC
  5
1A88
  8
_0-0_
  6
CONTINUOUS
 62
     7
 10
-1041.3133765864179
 20
618.90340235365966
 30
0.0
 40
5.1129723658203128
 50
267.67657563344972
 51
358.0812315734704
  0
ARC
  5
1A89
  8
_0-0_
  6
CONTINUOUS
 62
     7
 10
-1449.2719579913601
 20
632.57056618853937
 30
0.0
 40
413.30042380109109
 50
358.0812315734704
 51
4.6684379876672093
  0
ARC
  5
1A8A
  8
_0-0_
  6
CONTINUOUS
 62
     7
 10
-1041.2498807499101
 20
665.88981481621238
 30
0.0
 40
3.9201753210972381
 50
4.6684379876672093
 51
130.5712919081644
  0
ARC
  5
1A8B
  8
_0-0_
  6
CONTINUOUS
 62
     7
 10
-350.56801085305551
 20
588.51287778281846
 30
0.0
 40
54.872034710730439
 50
21.961787015230499
 51
65.106614609358402
  0
ARC
  5
1A8C
  8
_0-0_
  6
CONTINUOUS
 62
     7
 10
-708.22810385144612
 20
444.28622263327537
 30
0.0
 40
440.51704009682851
 50
358.53977855228823
 51
21.961787015230499
  0
ARC
  5
1A8D
  8
_0-0_
  6
CONTINUOUS
 62
     7
 10
-350.56801085305551
 20
277.17466098818198
 30
0.0
 40
54.872034710730439
 50
294.89338539064158
 51
338.03821298476947
  0
ARC
  5
1A8E
  8
_0-0_
  6
CONTINUOUS
 62
     7
 10
-708.22810385144612
 20
421.40131613772701
 30
0.0
 40
440.51704009682851
 50
338.03821298476947
 51
1.4602214477117801
  0
ARC
  5
1A8F
  8
_0-0_
  6
CONTINUOUS
 62
     7
 10
-1176.5569465519891
 20
432.8437693855002
 30
0.0
 40
266.96961866828218
 50
223.8165926357913
 51
226.90586461424061
  0
ARC
  5
1A90
  8
_0-0_
  6
CONTINUOUS
 62
     7
 10
-1176.5569465519891
 20
432.8437693855002
 30
0.0
 40
266.96961866828218
 50
180.0
 51
206.3867774575973
  0
LINE
  5
1A91
  8
_0-0_
  6
CONTINUOUS
 62
     7
 10
-1369.3557799754481
 20
247.7910638430867
 30
0.0
 11
-1369.3557799754481
 21
247.7910638430867
 31
0.0
  0
LINE
  5
1A92
  8
_0-0_
  6
CONTINUOUS
 62
     7
 10
-1370.2847827802671
 20
247.89169459342429
 30
0.0
 11
-1369.3557799754481
 21
247.7910638430867
 31
0.0
  0
LINE
  5
1A93
  8
_0-0_
  6
CONTINUOUS
 62
     7
 10
-1371.8913854108409
 20
248.9972933037034
 30
0.0
 11
-1370.2847827802671
 21
247.89169459342429
 31
0.0
  0
LINE
  5
1A94
  8
_0-0_
  6
CONTINUOUS
 62
     7
 10
-1374.1267720592191
 20
251.0742669165729
 30
0.0
 11
-1371.8913854108409
 21
248.9972933037034
 31
0.0
  0
LINE
  5
1A95
  8
_0-0_
  6
CONTINUOUS
 62
     7
 10
-1376.9230216332519
 20
254.05950763980309
 30
0.0
 11
-1374.1267720592191
 21
251.0742669165729
 31
0.0
  0
LINE
  5
1A96
  8
_0-0_
  6
CONTINUOUS
 62
     7
 10
-1380.195171504603
 20
257.86231044462602
 30
0.0
 11
-1376.9230216332519
 21
254.05950763980309
 31
0.0
  0
LINE
  5
1A97
  8
_0-0_
  6
CONTINUOUS
 62
     7
 10
-1383.8437990552179
 20
262.36712909212571
 30
0.0
 11
-1380.195171504603
 21
257.86231044462602
 31
0.0
  0
LINE
  5
1A98
  8
_0-0_
  6
CONTINUOUS
 62
     7
 10
-1387.7580425832671
 20
267.43708694724683
 30
0.0
 11
-1383.8437990552179
 21
262.36712909212571
 31
0.0
  0
LINE
  5
1A99
  8
_0-0_
  6
CONTINUOUS
 62
     7
 10
-1391.8189697798539
 20
272.9181359060849
 30
0.0
 11
-1387.7580425832671
 21
267.43708694724683
 31
0.0
  0
LINE
  5
1A9A
  8
_0-0_
  6
CONTINUOUS
 62
     7
 10
-1395.903191427037
 20
278.64373706956849
 30
0.0
 11
-1391.8189697798539
 21
272.9181359060849
 31
0.0
  0
LINE
  5
1A9B
  8
_0-0_
  6
CONTINUOUS
 62
     7
 10
-1399.8866105167831
 20
284.43992094364057
 30
0.0
 11
-1395.903191427037
 21
278.64373706956849
 31
0.0
  0
LINE
  5
1A9C
  8
_0-0_
  6
CONTINUOUS
 62
     7
 10
-1403.6481928757571
 20
290.13057341429788
 30
0.0
 11
-1399.8866105167831
 21
284.43992094364057
 31
0.0
  0
LINE
  5
1A9D
  8
_0-0_
  6
CONTINUOUS
 62
     7
 10
-1407.0736447274351
 20
295.54278688582872
 30
0.0
 11
-1403.6481928757571
 21
290.13057341429788
 31
0.0
  0
LINE
  5
1A9E
  8
_0-0_
  6
CONTINUOUS
 62
     7
 10
-1410.0588854506659
 20
300.51211399061231
 30
0.0
 11
-1407.0736447274351
 21
295.54278688582872
 31
0.0
  0
LINE
  5
1A9F
  8
_0-0_
  6
CONTINUOUS
 62
     7
 10
-1412.5132100166791
 20
304.8875642391713
 30
0.0
 11
-1410.0588854506659
 21
300.51211399061231
 31
0.0
  0
LINE
  5
1AA0
  8
_0-0_
  6
CONTINUOUS
 62
     7
 10
-1414.3620450154831
 20
308.53619178978721
 30
0.0
 11
-1412.5132100166791
 21
304.8875642391713
 31
0.0
  0
LINE
  5
1AA1
  8
_0-0_
  6
CONTINUOUS
 62
     7
 10
-1415.5492145311971
 20
311.34713494062908
 30
0.0
 11
-1414.3620450154831
 21
308.53619178978721
 31
0.0
  0
LINE
  5
1AA2
  8
_0-0_
  6
CONTINUOUS
 62
     7
 10
-1416.0386470188209
 20
313.23498460646351
 30
0.0
 11
-1415.5492145311971
 21
311.34713494062908
 31
0.0
  0
LINE
  5
1AA3
  8
_0-0_
  6
CONTINUOUS
 62
     7
 10
-1415.815471319883
 20
314.14237943049471
 30
0.0
 11
-1416.0386470188209
 21
313.23498460646351
 31
0.0
  0
LINE
  5
1AA4
  8
_0-0_
  6
CONTINUOUS
 62
     7
 10
-1414.886468515065
 20
314.04174868015713
 30
0.0
 11
-1415.815471319883
 21
314.14237943049471
 31
0.0
  0
LINE
  5
1AA5
  8
_0-0_
  6
CONTINUOUS
 62
     7
 10
-1413.279865884492
 20
312.93614996987799
 30
0.0
 11
-1414.886468515065
 21
314.04174868015713
 31
0.0
  0
LINE
  5
1AA6
  8
_0-0_
  6
CONTINUOUS
 62
     7
 10
-1411.044479236112
 20
310.85917635700849
 30
0.0
 11
-1413.279865884492
 21
312.93614996987799
 31
0.0
  0
LINE
  5
1AA7
  8
_0-0_
  6
CONTINUOUS
 62
     7
 10
-1408.248229662081
 20
307.87393563377651
 30
0.0
 11
-1411.044479236112
 21
310.85917635700849
 31
0.0
  0
LINE
  5
1AA8
  8
_0-0_
  6
CONTINUOUS
 62
     7
 10
-1404.97607979073
 20
304.0711328289554
 30
0.0
 11
-1408.248229662081
 21
307.87393563377651
 31
0.0
  0
LINE
  5
1AA9
  8
_0-0_
  6
CONTINUOUS
 62
     7
 10
-1401.3274522401141
 20
299.56631418145571
 30
0.0
 11
-1404.97607979073
 21
304.0711328289554
 31
0.0
  0
LINE
  5
1AAA
  8
_0-0_
  6
CONTINUOUS
 62
     7
 10
-1397.413208712064
 20
294.49635632633448
 30
0.0
 11
-1401.3274522401141
 21
299.56631418145571
 31
0.0
  0
LINE
  5
1AAB
  8
_0-0_
  6
CONTINUOUS
 62
     7
 10
-1393.352281515479
 20
289.0153073674964
 30
0.0
 11
-1397.413208712064
 21
294.49635632633448
 31
0.0
  0
LINE
  5
1AAC
  8
_0-0_
  6
CONTINUOUS
 62
     7
 10
-1389.2680598682959
 20
283.28970620401282
 30
0.0
 11
-1393.352281515479
 21
289.0153073674964
 31
0.0
  0
LINE
  5
1AAD
  8
_0-0_
  6
CONTINUOUS
 62
     7
 10
-1385.2846407785489
 20
277.49352232993903
 30
0.0
 11
-1389.2680598682959
 21
283.28970620401282
 31
0.0
  0
LINE
  5
1AAE
  8
_0-0_
  6
CONTINUOUS
 62
     7
 10
-1381.5230584195749
 20
271.8028698592816
 30
0.0
 11
-1385.2846407785489
 21
277.49352232993903
 31
0.0
  0
LINE
  5
1AAF
  8
_0-0_
  6
CONTINUOUS
 62
     7
 10
-1378.097606567896
 20
266.39065638775082
 30
0.0
 11
-1381.5230584195749
 21
271.8028698592816
 31
0.0
  0
LINE
  5
1AB0
  8
_0-0_
  6
CONTINUOUS
 62
     7
 10
-1375.1123658446661
 20
261.42132928296718
 30
0.0
 11
-1378.097606567896
 21
266.39065638775082
 31
0.0
  0
LINE
  5
1AB1
  8
_0-0_
  6
CONTINUOUS
 62
     7
 10
-1372.6580412786529
 20
257.04587903441012
 30
0.0
 11
-1375.1123658446661
 21
261.42132928296718
 31
0.0
  0
LINE
  5
1AB2
  8
_0-0_
  6
CONTINUOUS
 62
     7
 10
-1370.809206279848
 20
253.39725148379421
 30
0.0
 11
-1372.6580412786529
 21
257.04587903441012
 31
0.0
  0
LINE
  5
1AB3
  8
_0-0_
  6
CONTINUOUS
 62
     7
 10
-1369.6220367641361
 20
250.58630833295231
 30
0.0
 11
-1370.809206279848
 21
253.39725148379421
 31
0.0
  0
LINE
  5
1AB4
  8
_0-0_
  6
CONTINUOUS
 62
     7
 10
-1369.132604276512
 20
248.69845866711779
 30
0.0
 11
-1369.6220367641361
 21
250.58630833295231
 31
0.0
  0
LINE
  5
1AB5
  8
_0-0_
  6
CONTINUOUS
 62
     7
 10
-1369.3557799754481
 20
247.7910638430867
 30
0.0
 11
-1369.132604276512
 21
248.69845866711779
 31
0.0
  0
LINE
  5
1AB6
  8
_0-0_
  6
CONTINUOUS
 62
     7
 10
-1369.3557799754481
 20
247.7910638430867
 30
0.0
 11
-1369.3557799754481
 21
247.7910638430867
 31
0.0
  0
ARC
  5
1AB7
  8
_0-0_
  6
CONTINUOUS
 62
     7
 10
-1176.5569465519891
 20
432.8437693855002
 30
0.0
 40
266.96961866828218
 50
223.8165926357913
 51
226.90586461424061
  0
ARC
  5
1AB8
  8
_0-0_
  6
CONTINUOUS
 62
     7
 10
-1176.5569465519891
 20
432.8437693855002
 30
0.0
 40
266.96961866828218
 50
153.6132225424027
 51
180.0
  0
ARC
  5
1AB9
  8
_0-0_
  6
CONTINUOUS
 62
     7
 10
-1176.5569465519891
 20
432.8437693855002
 30
0.0
 40
266.96961866828218
 50
133.0941353857593
 51
136.1834073642087
  0
LINE
  5
1ABA
  8
_0-0_
  6
CONTINUOUS
 62
     7
 10
-1369.3557799754481
 20
617.8964749279138
 30
0.0
 11
-1369.3557799754481
 21
617.8964749279138
 31
0.0
  0
LINE
  5
1ABB
  8
_0-0_
  6
CONTINUOUS
 62
     7
 10
-1369.132604276512
 20
616.98908010388266
 30
0.0
 11
-1369.3557799754481
 21
617.8964749279138
 31
0.0
  0
LINE
  5
1ABC
  8
_0-0_
  6
CONTINUOUS
 62
     7
 10
-1369.6220367641361
 20
615.10123043804833
 30
0.0
 11
-1369.132604276512
 21
616.98908010388266
 31
0.0
  0
LINE
  5
1ABD
  8
_0-0_
  6
CONTINUOUS
 62
     7
 10
-1370.809206279848
 20
612.29028728720641
 30
0.0
 11
-1369.6220367641361
 21
615.10123043804833
 31
0.0
  0
LINE
  5
1ABE
  8
_0-0_
  6
CONTINUOUS
 62
     7
 10
-1372.6580412786541
 20
608.64165973659055
 30
0.0
 11
-1370.809206279848
 21
612.29028728720641
 31
0.0
  0
LINE
  5
1ABF
  8
_0-0_
  6
CONTINUOUS
 62
     7
 10
-1375.1123658446661
 20
604.26620948803156
 30
0.0
 11
-1372.6580412786541
 21
608.64165973659055
 31
0.0
  0
LINE
  5
1AC0
  8
_0-0_
  6
CONTINUOUS
 62
     7
 10
-1378.097606567896
 20
599.29688238324786
 30
0.0
 11
-1375.1123658446661
 21
604.26620948803156
 31
0.0
  0
LINE
  5
1AC1
  8
_0-0_
  6
CONTINUOUS
 62
     7
 10
-1381.5230584195749
 20
593.8846689117172
 30
0.0
 11
-1378.097606567896
 21
599.29688238324786
 31
0.0
  0
LINE
  5
1AC2
  8
_0-0_
  6
CONTINUOUS
 62
     7
 10
-1385.2846407785489
 20
588.19401644105983
 30
0.0
 11
-1381.5230584195749
 21
593.8846689117172
 31
0.0
  0
LINE
  5
1AC3
  8
_0-0_
  6
CONTINUOUS
 62
     7
 10
-1389.2680598682959
 20
582.39783256698774
 30
0.0
 11
-1385.2846407785489
 21
588.19401644105983
 31
0.0
  0
LINE
  5
1AC4
  8
_0-0_
  6
CONTINUOUS
 62
     7
 10
-1393.352281515479
 20
576.67223140350416
 30
0.0
 11
-1389.2680598682959
 21
582.39783256698774
 31
0.0
  0
LINE
  5
1AC5
  8
_0-0_
  6
CONTINUOUS
 62
     7
 10
-1397.413208712064
 20
571.19118244466597
 30
0.0
 11
-1393.352281515479
 21
576.67223140350416
 31
0.0
  0
LINE
  5
1AC6
  8
_0-0_
  6
CONTINUOUS
 62
     7
 10
-1401.3274522401141
 20
566.12122458954479
 30
0.0
 11
-1397.413208712064
 21
571.19118244466597
 31
0.0
  0
LINE
  5
1AC7
  8
_0-0_
  6
CONTINUOUS
 62
     7
 10
-1404.97607979073
 20
561.61640594204516
 30
0.0
 11
-1401.3274522401141
 21
566.12122458954479
 31
0.0
  0
LINE
  5
1AC8
  8
_0-0_
  6
CONTINUOUS
 62
     7
 10
-1408.248229662081
 20
557.81360313722234
 30
0.0
 11
-1404.97607979073
 21
561.61640594204516
 31
0.0
  0
LINE
  5
1AC9
  8
_0-0_
  6
CONTINUOUS
 62
     7
 10
-1411.044479236112
 20
554.82836241399207
 30
0.0
 11
-1408.248229662081
 21
557.81360313722234
 31
0.0
  0
LINE
  5
1ACA
  8
_0-0_
  6
CONTINUOUS
 62
     7
 10
-1413.279865884492
 20
552.75138880112263
 30
0.0
 11
-1411.044479236112
 21
554.82836241399207
 31
0.0
  0
LINE
  5
1ACB
  8
_0-0_
  6
CONTINUOUS
 62
     7
 10
-1414.886468515065
 20
551.64579009084355
 30
0.0
 11
-1413.279865884492
 21
552.75138880112263
 31
0.0
  0
LINE
  5
1ACC
  8
_0-0_
  6
CONTINUOUS
 62
     7
 10
-1415.815471319883
 20
551.54515934050585
 30
0.0
 11
-1414.886468515065
 21
551.64579009084355
 31
0.0
  0
LINE
  5
1ACD
  8
_0-0_
  6
CONTINUOUS
 62
     7
 10
-1416.0386470188209
 20
552.45255416453699
 30
0.0
 11
-1415.815471319883
 21
551.54515934050585
 31
0.0
  0
LINE
  5
1ACE
  8
_0-0_
  6
CONTINUOUS
 62
     7
 10
-1415.5492145311971
 20
554.34040383037154
 30
0.0
 11
-1416.0386470188209
 21
552.45255416453699
 31
0.0
  0
LINE
  5
1ACF
  8
_0-0_
  6
CONTINUOUS
 62
     7
 10
-1414.3620450154831
 20
557.15134698121335
 30
0.0
 11
-1415.5492145311971
 21
554.34040383037154
 31
0.0
  0
LINE
  5
1AD0
  8
_0-0_
  6
CONTINUOUS
 62
     7
 10
-1412.5132100166791
 20
560.79997453182932
 30
0.0
 11
-1414.3620450154831
 21
557.15134698121335
 31
0.0
  0
LINE
  5
1AD1
  8
_0-0_
  6
CONTINUOUS
 62
     7
 10
-1410.0588854506659
 20
565.17542478038831
 30
0.0
 11
-1412.5132100166791
 21
560.79997453182932
 31
0.0
  0
LINE
  5
1AD2
  8
_0-0_
  6
CONTINUOUS
 62
     7
 10
-1407.0736447274351
 20
570.14475188517179
 30
0.0
 11
-1410.0588854506659
 21
565.17542478038831
 31
0.0
  0
LINE
  5
1AD3
  8
_0-0_
  6
CONTINUOUS
 62
     7
 10
-1403.6481928757571
 20
575.55696535670074
 30
0.0
 11
-1407.0736447274351
 21
570.14475188517179
 31
0.0
  0
LINE
  5
1AD4
  8
_0-0_
  6
CONTINUOUS
 62
     7
 10
-1399.8866105167831
 20
581.24761782735823
 30
0.0
 11
-1403.6481928757571
 21
575.55696535670074
 31
0.0
  0
LINE
  5
1AD5
  8
_0-0_
  6
CONTINUOUS
 62
     7
 10
-1395.903191427037
 20
587.04380170143213
 30
0.0
 11
-1399.8866105167831
 21
581.24761782735823
 31
0.0
  0
LINE
  5
1AD6
  8
_0-0_
  6
CONTINUOUS
 62
     7
 10
-1391.8189697798539
 20
592.76940286491572
 30
0.0
 11
-1395.903191427037
 21
587.04380170143213
 31
0.0
  0
LINE
  5
1AD7
  8
_0-0_
  6
CONTINUOUS
 62
     7
 10
-1387.7580425832671
 20
598.25045182375368
 30
0.0
 11
-1391.8189697798539
 21
592.76940286491572
 31
0.0
  0
LINE
  5
1AD8
  8
_0-0_
  6
CONTINUOUS
 62
     7
 10
-1383.8437990552179
 20
603.32040967887485
 30
0.0
 11
-1387.7580425832671
 21
598.25045182375368
 31
0.0
  0
LINE
  5
1AD9
  8
_0-0_
  6
CONTINUOUS
 62
     7
 10
-1380.195171504603
 20
607.82522832637449
 30
0.0
 11
-1383.8437990552179
 21
603.32040967887485
 31
0.0
  0
LINE
  5
1ADA
  8
_0-0_
  6
CONTINUOUS
 62
     7
 10
-1376.9230216332519
 20
611.62803113119753
 30
0.0
 11
-1380.195171504603
 21
607.82522832637449
 31
0.0
  0
LINE
  5
1ADB
  8
_0-0_
  6
CONTINUOUS
 62
     7
 10
-1374.1267720592191
 20
614.61327185442769
 30
0.0
 11
-1376.9230216332519
 21
611.62803113119753
 31
0.0
  0
LINE
  5
1ADC
  8
_0-0_
  6
CONTINUOUS
 62
     7
 10
-1371.8913854108409
 20
616.69024546729725
 30
0.0
 11
-1374.1267720592191
 21
614.61327185442769
 31
0.0
  0
LINE
  5
1ADD
  8
_0-0_
  6
CONTINUOUS
 62
     7
 10
-1370.2847827802671
 20
617.79584417757633
 30
0.0
 11
-1371.8913854108409
 21
616.69024546729725
 31
0.0
  0
LINE
  5
1ADE
  8
_0-0_
  6
CONTINUOUS
 62
     7
 10
-1369.3557799754481
 20
617.8964749279138
 30
0.0
 11
-1370.2847827802671
 21
617.79584417757633
 31
0.0
  0
LINE
  5
1ADF
  8
_0-0_
  6
CONTINUOUS
 62
     7
 10
-1369.3557799754481
 20
617.8964749279138
 30
0.0
 11
-1369.3557799754481
 21
617.8964749279138
 31
0.0
  0
LINE
  5
1AE0
  8
_0-0_
  6
CONTINUOUS
 62
     7
 10
-1130.162930885577
 20
613.37498583754041
 30
0.0
 11
-1425.9375163960981
 21
517.81704282644841
 31
0.0
  0
LINE
  5
1AE1
  8
_0-0_
  6
CONTINUOUS
 62
     7
 10
-1130.162930885577
 20
252.31255293346021
 30
0.0
 11
-1425.9375163960981
 21
347.87049594455038
 31
0.0
  0
ARC
  5
1AE2
  8
_0-0_
  6
CONTINUOUS
 62
     7
 10
-482.15283565212252
 20
553.00827034341
 30
0.0
 40
72.108429547959133
 50
65.072727828479998
 51
85.685524194224243
  0
ARC
  5
1AE3
  8
_0-0_
  6
CONTINUOUS
 62
     7
 10
-455.19696113668527
 20
611.00742606291794
 30
0.0
 40
8.1512467217288798
 50
286.75603861143992
 51
65.072727828479998
  0
ARC
  5
1AE4
  8
_0-0_
  6
CONTINUOUS
 62
     7
 10
-594.30490775384476
 20
1073.0360723782189
 30
0.0
 40
490.66704006738632
 50
278.69267275946021
 51
286.75603861143992
  0
ARC
  5
1AE5
  8
_0-0_
  6
CONTINUOUS
 62
     7
 10
-779.23685691633864
 20
2282.6062945784261
 30
0.0
 40
1714.292778704207
 50
265.3758088597566
 51
278.69267275946021
  0
ARC
  5
1AE6
  8
_0-0_
  6
CONTINUOUS
 62
     7
 10
-910.72387132992242
 20
656.9627188317836
 30
0.0
 40
83.340336011369814
 50
250.8468750608198
 51
265.3758088597566
  0
ARC
  5
1AE7
  8
_0-0_
  6
CONTINUOUS
 62
     7
 10
-742.38293902822761
 20
448.27613694183208
 30
0.0
 40
260.98375915938271
 50
356.61003572516819
 51
27.320482539168481
  0
ARC
  5
1AE8
  8
_0-0_
  6
CONTINUOUS
 62
     7
 10
-503.4319028516461
 20
571.71616173934945
 30
0.0
 40
7.9679789124763216
 50
105.9030409961379
 51
207.32048253916849
  0
ARC
  5
1AE9
  8
_0-0_
  6
CONTINUOUS
 62
     7
 10
-323.35152423632962
 20
-60.333596135261359
 30
0.0
 40
665.17102150402457
 50
101.3827885558366
 51
105.9030409961379
  0
ARC
  5
1AEA
  8
_0-0_
  6
CONTINUOUS
 62
     7
 10
-451.03947574575108
 20
573.91133279616486
 30
0.0
 40
18.200509938080572
 50
17.792036275934159
 51
101.3827885558366
  0
ARC
  5
1AEB
  8
_0-0_
  6
CONTINUOUS
 62
     7
 10
-890.62339976587225
 20
432.8437693855002
 30
0.0
 40
479.86498085126408
 50
0.0
 51
17.792036275934159
  0
ARC
  5
1AEC
  8
_0-0_
  6
CONTINUOUS
 62
     7
 10
-746.89205971917215
 20
432.8437693855002
 30
0.0
 40
417.15782074813308
 50
156.83172809704371
 51
180.0
  0
ARC
  5
1AED
  8
_0-0_
  6
CONTINUOUS
 62
     7
 10
-1100.1825938923871
 20
578.276006291665
 30
0.0
 40
35.537471174692847
 50
73.808052959864227
 51
148.2669690913601
  0
LINE
  5
1AEE
  8
_0-0_
  6
CONTINUOUS
 62
     7
 10
-945.1360553940217
 20
570.25982030545765
 30
0.0
 11
-1090.272752090834
 21
612.40380863755763
 31
0.0
  0
ARC
  5
1AEF
  8
_0-0_
  6
CONTINUOUS
 62
     7
 10
-952.34037215063688
 20
556.20552194523486
 30
0.0
 40
15.7932100070829
 50
347.23599838483688
 51
62.860053537362248
  0
ARC
  5
1AF0
  8
_0-0_
  6
CONTINUOUS
 62
     7
 10
-407.77813422145522
 20
432.8437693855002
 30
0.0
 40
542.56702583806396
 50
167.2359983848369
 51
180.0
  0
ARC
  5
1AF1
  8
_0-0_
  6
CONTINUOUS
 62
     7
 10
-1309.4245520386289
 20
574.85832235647922
 30
0.0
 40
72.490998138156598
 50
94.183368846578631
 51
133.0941353857593
  0
ARC
  5
1AF2
  8
_0-0_
  6
CONTINUOUS
 62
     7
 10
-708.22810385144612
 20
444.28622263327537
 30
0.0
 40
449.02453397747848
 50
358.53977855228823
 51
21.961787015230499
  0
ARC
  5
1AF3
  8
_0-0_
  6
CONTINUOUS
 62
     7
 10
-330.5833177206955
 20
596.57171772916706
 30
0.0
 40
41.831144408906617
 50
21.961787015230499
 51
85.732680934839493
  0
ARC
  5
1AF4
  8
_0-0_
  6
CONTINUOUS
 62
     7
 10
-1332.525047907563
 20
545.57120867332651
 30
0.0
 40
100.3888034098546
 50
94.201281849294944
 51
142.40022968255721
  0
ARC
  5
1AF5
  8
_0-0_
  6
CONTINUOUS
 62
     7
 10
-1186.144270694052
 20
432.8437693855002
 30
0.0
 40
285.14487910432962
 50
142.40022968255721
 51
180.0
  0
ARC
  5
1AF6
  8
_0-0_
  6
CONTINUOUS
 62
     7
 10
-482.15283565212252
 20
312.67926842759061
 30
0.0
 40
72.108429547959133
 50
274.31447580577583
 51
294.92727217151997
  0
ARC
  5
1AF7
  8
_0-0_
  6
CONTINUOUS
 62
     7
 10
-455.19696113668527
 20
254.68011270807889
 30
0.0
 40
8.1512467217288798
 50
294.92727217151997
 51
73.243961388560095
  0
ARC
  5
1AF8
  8
_0-0_
  6
CONTINUOUS
 62
     7
 10
-594.30490775384476
 20
-207.34853360721809
 30
0.0
 40
490.66704006738632
 50
73.243961388560095
 51
81.307327240539749
  0
ARC
  5
1AF9
  8
_0-0_
  6
CONTINUOUS
 62
     7
 10
-779.23685691633864
 20
-1416.9187558074291
 30
0.0
 40
1714.292778704207
 50
81.307327240539749
 51
94.624191140243468
  0
ARC
  5
1AFA
  8
_0-0_
  6
CONTINUOUS
 62
     7
 10
-910.72387132992242
 20
208.72481993921701
 30
0.0
 40
83.340336011369814
 50
94.624191140243468
 51
109.1531249391801
  0
ARC
  5
1AFB
  8
_0-0_
  6
CONTINUOUS
 62
     7
 10
-742.38293902822761
 20
417.41140182916843
 30
0.0
 40
260.98375915938271
 50
332.67951746083151
 51
3.3899642748317809
  0
ARC
  5
1AFC
  8
_0-0_
  6
CONTINUOUS
 62
     7
 10
-503.4319028516461
 20
293.97137703165117
 30
0.0
 40
7.9679789124763216
 50
152.67951746083151
 51
254.09695900386211
  0
ARC
  5
1AFD
  8
_0-0_
  6
CONTINUOUS
 62
     7
 10
-323.35152423632962
 20
926.02113490626004
 30
0.0
 40
665.17102150402457
 50
254.09695900386211
 51
258.61721144416339
  0
ARC
  5
1AFE
  8
_0-0_
  6
CONTINUOUS
 62
     7
 10
-451.03947574575108
 20
291.7762059748357
 30
0.0
 40
18.200509938080572
 50
258.61721144416339
 51
342.20796372406591
  0
ARC
  5
1AFF
  8
_0-0_
  6
CONTINUOUS
 62
     7
 10
-890.62339976587225
 20
432.8437693855002
 30
0.0
 40
479.86498085126408
 50
342.20796372406591
 51
0.0
  0
ARC
  5
1B00
  8
_0-0_
  6
CONTINUOUS
 62
     7
 10
-746.89205971917215
 20
432.8437693855002
 30
0.0
 40
417.15782074813308
 50
180.0
 51
203.16827190295621
  0
ARC
  5
1B01
  8
_0-0_
  6
CONTINUOUS
 62
     7
 10
-1100.1825938923871
 20
287.41153247933562
 30
0.0
 40
35.537471174692847
 50
211.7330309086399
 51
286.1919470401358
  0
LINE
  5
1B02
  8
_0-0_
  6
CONTINUOUS
 62
     7
 10
-945.1360553940217
 20
295.4277184655412
 30
0.0
 11
-1090.272752090834
 21
253.2837301334412
 31
0.0
  0
ARC
  5
1B03
  8
_0-0_
  6
CONTINUOUS
 62
     7
 10
-952.34037215063688
 20
309.4820168257657
 30
0.0
 40
15.7932100070829
 50
297.13994646263768
 51
12.764001615163091
  0
ARC
  5
1B04
  8
_0-0_
  6
CONTINUOUS
 62
     7
 10
-407.77813422145522
 20
432.8437693855002
 30
0.0
 40
542.56702583806396
 50
180.0
 51
192.7640016151631
  0
ARC
  5
1B05
  8
_0-0_
  6
CONTINUOUS
 62
     7
 10
-1309.4245520386289
 20
290.8292164145214
 30
0.0
 40
72.490998138156598
 50
226.90586461424061
 51
265.81663115342138
  0
ARC
  5
1B06
  8
_0-0_
  6
CONTINUOUS
 62
     7
 10
-708.22810385144612
 20
421.40131613772701
 30
0.0
 40
449.02453397747848
 50
338.03821298476947
 51
1.4602214477117801
  0
ARC
  5
1B07
  8
_0-0_
  6
CONTINUOUS
 62
     7
 10
-330.5833177206955
 20
269.11582104183162
 30
0.0
 40
41.831144408906617
 50
274.26731906516051
 51
338.03821298476947
  0
ARC
  5
1B08
  8
_0-0_
  6
CONTINUOUS
 62
     7
 10
-1332.525047907563
 20
320.11633009767411
 30
0.0
 40
100.3888034098546
 50
217.59977031744279
 51
265.7987181507051
  0
ARC
  5
1B09
  8
_0-0_
  6
CONTINUOUS
 62
     7
 10
-1186.144270694052
 20
432.8437693855002
 30
0.0
 40
285.14487910432962
 50
180.0
 51
217.59977031744279
  0
ENDBLK
  5
1A70
  8
0
  0
ENDSEC
  0
SECTION
  2
ENTITIES
  0
LINE
  5
73
  8
7
  6
CONTINUOUS
 62
     6
 10
3990.7398071289081
 20
7.7400150299072301
 30
0.0
 11
3990.7398071289081
 21
2747.7405014038059
 31
0.0
  0
LINE
  5
75
  8
7
  6
CONTINUOUS
 62
     6
 10
15.7399597167969
 20
7.7400150299072301
 30
0.0
 11
3990.7398071289081
 21
7.7400150299072301
 31
0.0
  0
LINE
  5
7F
  8
4
  6
DASHED1
 10
1282.496856689452
 20
1933.9666976928711
 30
0.0
 11
1505.6105651855471
 21
1933.9666976928711
 31
0.0
  0
LINE
  5
E5
  8
6
  6
CONTINUOUS
 10
1000.906509399412
 20
2405.5732955932608
 30
0.0
 11
987.5732269287123
 21
2405.5732955932608
 31
0.0
  0
LINE
  5
E6
  8
6
  6
CONTINUOUS
 10
976.73994445800724
 20
2429.740165710451
 30
0.0
 11
976.73994445800724
 21
2416.4067306518568
 31
0.0
  0
LINE
  5
E7
  8
6
  6
CONTINUOUS
 10
965.90658569335733
 20
2405.5732955932608
 30
0.0
 11
952.5732269287123
 21
2405.5732955932608
 31
0.0
  0
LINE
  5
E8
  8
6
  6
CONTINUOUS
 10
976.73994445800724
 20
2364.7400131225609
 30
0.0
 11
976.73994445800724
 21
2394.7398605346671
 31
0.0
  0
LINE
  5
E9
  8
6
  6
CONTINUOUS
 10
1659.906524658202
 20
2405.5732955932608
 30
0.0
 11
1646.573242187497
 21
2405.5732955932608
 31
0.0
  0
LINE
  5
EA
  8
6
  6
CONTINUOUS
 10
1635.7399597167971
 20
2429.740165710451
 30
0.0
 11
1635.7399597167971
 21
2416.4067306518568
 31
0.0
  0
LINE
  5
EB
  8
6
  6
CONTINUOUS
 10
1624.9065246582029
 20
2405.5732955932608
 30
0.0
 11
1611.573242187497
 21
2405.5732955932608
 31
0.0
  0
LINE
  5
EC
  8
6
  6
CONTINUOUS
 10
1635.7399597167971
 20
2364.7400131225609
 30
0.0
 11
1635.7399597167971
 21
2394.7398605346671
 31
0.0
  0
LINE
  5
ED
  8
6
  6
CONTINUOUS
 10
335.90654754638638
 20
2038.906578063966
 30
0.0
 11
335.90654754638638
 21
2025.573295593261
 31
0.0
  0
LINE
  5
EE
  8
6
  6
CONTINUOUS
 10
311.73990631103487
 20
2014.7400131225611
 30
0.0
 11
325.07318878173839
 21
2014.7400131225611
 31
0.0
  0
LINE
  5
EF
  8
6
  6
CONTINUOUS
 10
335.90654754638638
 20
2003.9067306518559
 30
0.0
 11
335.90654754638638
 21
1990.573448181151
 31
0.0
  0
LINE
  5
F0
  8
6
  6
CONTINUOUS
 10
376.73986816406239
 20
2014.7400131225611
 30
0.0
 11
346.73990631103487
 21
2014.7400131225611
 31
0.0
  0
LINE
  5
F1
  8
6
  6
CONTINUOUS
 10
335.90654754638638
 20
661.90668487548612
 30
0.0
 11
335.90654754638638
 21
648.57332611084109
 31
0.0
  0
LINE
  5
F2
  8
6
  6
CONTINUOUS
 10
311.73990631103487
 20
637.74004364013604
 30
0.0
 11
325.07318878173839
 21
637.74004364013604
 31
0.0
  0
LINE
  5
F3
  8
6
  6
CONTINUOUS
 10
335.90654754638638
 20
626.90668487548612
 30
0.0
 11
335.90654754638638
 21
613.57332611084109
 31
0.0
  0
LINE
  5
F4
  8
6
  6
CONTINUOUS
 10
376.73986816406239
 20
637.74004364013604
 30
0.0
 11
346.73990631103487
 21
637.74004364013604
 31
0.0
  0
LINE
  5
F5
  8
6
  6
CONTINUOUS
 10
335.90654754638638
 20
1080.906547546386
 30
0.0
 11
335.90654754638638
 21
1067.5732650756861
 31
0.0
  0
LINE
  5
F6
  8
6
  6
CONTINUOUS
 10
311.73990631103487
 20
1056.7399826049809
 30
0.0
 11
325.07318878173839
 21
1056.7399826049809
 31
0.0
  0
LINE
  5
F7
  8
6
  6
CONTINUOUS
 10
335.90654754638638
 20
1045.9066238403309
 30
0.0
 11
335.90654754638638
 21
1032.5732650756861
 31
0.0
  0
LINE
  5
F8
  8
6
  6
CONTINUOUS
 10
376.73986816406239
 20
1056.7399826049809
 30
0.0
 11
346.73990631103487
 21
1056.7399826049809
 31
0.0
  0
LINE
  5
F9
  8
6
  6
CONTINUOUS
 10
335.90654754638638
 20
1499.9066390991211
 30
0.0
 11
335.90654754638638
 21
1486.5733566284159
 31
0.0
  0
LINE
  5
FA
  8
6
  6
CONTINUOUS
 10
311.73990631103487
 20
1475.739921569826
 30
0.0
 11
325.07318878173839
 21
1475.739921569826
 31
0.0
  0
LINE
  5
FB
  8
6
  6
CONTINUOUS
 10
335.90654754638638
 20
1464.9066390991211
 30
0.0
 11
335.90654754638638
 21
1451.5733566284159
 31
0.0
  0
LINE
  5
FC
  8
6
  6
CONTINUOUS
 10
376.73986816406239
 20
1475.739921569826
 30
0.0
 11
346.73990631103487
 21
1475.739921569826
 31
0.0
  0
LINE
  5
1D4
  8
1
  6
CONTINUOUS
 10
986.23991394042741
 20
628.24007415771609
 30
0.0
 11
986.23991394042741
 21
647.24001312256098
 31
0.0
  0
LINE
  5
1E3
  8
1
  6
CONTINUOUS
 10
1626.239990234378
 20
647.24001312256098
 30
0.0
 11
1626.239990234378
 21
628.24007415771609
 31
0.0
  0
LINE
  5
21A
  8
1
  6
CONTINUOUS
 10
986.23991394042741
 20
1466.239952087401
 30
0.0
 11
986.23991394042741
 21
1485.2398910522461
 31
0.0
  0
LINE
  5
21B
  8
1
  6
CONTINUOUS
 10
1626.239990234378
 20
1485.2398910522461
 30
0.0
 11
1626.239990234378
 21
1466.239952087401
 31
0.0
  0
LINE
  5
264
  8
1
  6
CONTINUOUS
 10
1626.239990234378
 20
628.24007415771609
 30
0.0
 11
1645.2399291992169
 21
628.24007415771609
 31
0.0
  0
LINE
  5
267
  8
1
  6
CONTINUOUS
 10
1645.2399291992169
 20
647.24001312256098
 30
0.0
 11
1645.2399291992169
 21
628.24007415771609
 31
0.0
  0
LINE
  5
26D
  8
1
  6
CONTINUOUS
 10
1626.239990234378
 20
647.24001312256098
 30
0.0
 11
1645.2399291992169
 21
647.24001312256098
 31
0.0
  0
LINE
  5
29F
  8
1
  6
CONTINUOUS
 10
1625.7398071289081
 20
628.24007415771609
 30
0.0
 11
986.73994445800724
 21
628.24007415771609
 31
0.0
  0
LINE
  5
2A9
  8
1
  6
CONTINUOUS
 10
967.23982238769725
 20
628.24007415771609
 30
0.0
 11
986.23991394042741
 21
628.24007415771609
 31
0.0
  0
LINE
  5
2AD
  8
1
  6
CONTINUOUS
 62
     5
 10
826.73986816406239
 20
625.24004364013604
 30
0.0
 11
1648.2398071289069
 21
625.24004364013604
 31
0.0
  0
LINE
  5
2AE
  8
1
  6
CONTINUOUS
 10
967.23982238769725
 20
647.24001312256098
 30
0.0
 11
986.23991394042741
 21
647.24001312256098
 31
0.0
  0
LINE
  5
2B0
  8
1
  6
CONTINUOUS
 10
1648.2398071289069
 20
2027.2400131225611
 30
0.0
 11
1648.2398071289069
 21
625.24004364013604
 31
0.0
  0
LINE
  5
2B1
  8
1
  6
CONTINUOUS
 10
967.23982238769725
 20
628.24007415771609
 30
0.0
 11
967.23982238769725
 21
647.24001312256098
 31
0.0
  0
LINE
  5
2F5
  8
1
  6
CONTINUOUS
 62
     5
 10
826.73986816406227
 20
2027.2400131225611
 30
0.0
 11
826.73986816406239
 21
625.24004364013604
 31
0.0
  0
LINE
  5
300
  8
1
  6
CONTINUOUS
 10
1626.239990234378
 20
1047.239936828616
 30
0.0
 11
1626.239990234378
 21
1066.239952087401
 31
0.0
  0
LINE
  5
301
  8
1
  6
CONTINUOUS
 10
1645.2399291992169
 20
1047.239936828616
 30
0.0
 11
1626.239990234378
 21
1047.239936828616
 31
0.0
  0
LINE
  5
302
  8
1
  6
CONTINUOUS
 10
1645.2399291992169
 20
1066.239952087401
 30
0.0
 11
1645.2399291992169
 21
1047.239936828616
 31
0.0
  0
LINE
  5
309
  8
1
  6
CONTINUOUS
 10
1546.7400207519529
 20
1047.239936828616
 30
0.0
 11
1585.7398071289069
 21
1047.239936828616
 31
0.0
  0
LINE
  5
30B
  8
1
  6
CONTINUOUS
 10
1625.7398071289081
 20
1047.239936828616
 30
0.0
 11
1625.7398071289081
 21
1066.239952087401
 31
0.0
  0
LINE
  5
30C
  8
1
  6
CONTINUOUS
 10
1586.739868164062
 20
1047.239936828616
 30
0.0
 11
1625.7398071289081
 21
1047.239936828616
 31
0.0
  0
LINE
  5
311
  8
1
  6
CONTINUOUS
 10
1546.740020751952
 20
1066.239952087401
 30
0.0
 11
1546.7400207519529
 21
1047.239936828616
 31
0.0
  0
LINE
  5
316
  8
1
  6
CONTINUOUS
 10
1645.2399291992169
 20
1465.740074157716
 30
0.0
 11
1645.2399291992169
 21
1066.7399826049809
 31
0.0
  0
LINE
  5
323
  8
1
  6
CONTINUOUS
 10
1626.239990234377
 20
1066.7399826049809
 30
0.0
 11
1626.239990234378
 21
1465.740074157716
 31
0.0
  0
LINE
  5
32C
  8
1
  6
CONTINUOUS
 10
1626.239990234378
 20
1465.740074157716
 30
0.0
 11
1645.2399291992169
 21
1465.740074157716
 31
0.0
  0
LINE
  5
32D
  8
1
  6
CONTINUOUS
 10
1585.7398071289069
 20
1066.239952087401
 30
0.0
 11
1546.7400207519529
 21
1066.239952087401
 31
0.0
  0
LINE
  5
339
  8
1
  6
CONTINUOUS
 10
1085.2399291992169
 20
1047.239936828616
 30
0.0
 11
986.73994445800724
 21
1047.239936828616
 31
0.0
  0
LINE
  5
340
  8
1
  6
CONTINUOUS
 10
986.73994445800724
 20
1066.239952087401
 30
0.0
 11
1085.2399291992169
 21
1066.239952087401
 31
0.0
  0
LINE
  5
341
  8
1
  6
CONTINUOUS
 10
986.73994445800724
 20
1047.239936828616
 30
0.0
 11
986.73994445800724
 21
1066.239952087401
 31
0.0
  0
LINE
  5
342
  8
1
  6
CONTINUOUS
 10
967.23982238769725
 20
1066.239952087401
 30
0.0
 11
986.23991394042741
 21
1066.239952087401
 31
0.0
  0
LINE
  5
352
  8
1
  6
CONTINUOUS
 10
986.73994445800724
 20
647.24001312256098
 30
0.0
 11
1625.7398071289081
 21
647.24001312256075
 31
0.0
  0
LINE
  5
387
  8
1
  6
CONTINUOUS
 10
1626.239990234378
 20
1466.239952087401
 30
0.0
 11
1645.2399291992169
 21
1466.239952087401
 31
0.0
  0
LINE
  5
389
  8
1
  6
CONTINUOUS
 10
1489.7398986816429
 20
1844.989952087401
 30
0.0
 11
1476.2398376464821
 21
1844.989952087401
 31
0.0
  0
LINE
  5
38A
  8
1
  6
CONTINUOUS
 10
967.23982238769725
 20
1466.239952087401
 30
0.0
 11
986.23991394042741
 21
1466.239952087401
 31
0.0
  0
LINE
  5
38B
  8
1
  6
CONTINUOUS
 10
1645.2399291992169
 20
1485.2398910522461
 30
0.0
 11
1645.2399291992169
 21
1466.239952087401
 31
0.0
  0
LINE
  5
392
  8
1
  6
CONTINUOUS
 10
1626.239990234378
 20
1485.2398910522461
 30
0.0
 11
1645.2399291992169
 21
1485.2398910522461
 31
0.0
  0
LINE
  5
393
  8
1
  6
CONTINUOUS
 10
967.23982238769725
 20
1485.2398910522461
 30
0.0
 11
986.23991394042741
 21
1485.2398910522461
 31
0.0
  0
LINE
  5
3A0
  8
1
  6
CONTINUOUS
 10
1476.2398376464821
 20
1914.989952087401
 30
0.0
 11
1489.7398986816429
 21
1914.989952087401
 31
0.0
  0
LINE
  5
3A4
  8
1
  6
CONTINUOUS
 10
1476.2398376464821
 20
1844.989952087401
 30
0.0
 11
1476.2398376464821
 21
1784.989952087401
 31
0.0
  0
LINE
  5
3A6
  8
1
  6
CONTINUOUS
 10
1476.2398376464821
 20
1974.9901046752909
 30
0.0
 11
1476.2398376464821
 21
1914.989952087401
 31
0.0
  0
LINE
  5
3A7
  8
1
  6
CONTINUOUS
 10
1476.2398376464821
 20
1784.989952087401
 30
0.0
 11
1489.7398986816429
 21
1784.989952087401
 31
0.0
  0
LINE
  5
3A8
  8
1
  6
CONTINUOUS
 10
1489.7398986816429
 20
1784.989952087401
 30
0.0
 11
1489.7398986816429
 21
1844.989952087401
 31
0.0
  0
LINE
  5
3A9
  8
1
  6
CONTINUOUS
 10
1489.7398986816429
 20
1914.989952087401
 30
0.0
 11
1489.7398986816429
 21
1974.9901046752909
 31
0.0
  0
LINE
  5
3AA
  8
1
  6
CONTINUOUS
 10
1489.7398986816429
 20
1974.9901046752909
 30
0.0
 11
1476.2398376464821
 21
1974.9901046752909
 31
0.0
  0
LINE
  5
3AB
  8
1
  6
CONTINUOUS
 10
967.23982238769725
 20
1466.239952087401
 30
0.0
 11
967.23982238769725
 21
1485.2398910522461
 31
0.0
  0
LINE
  5
3AC
  8
1
  6
CONTINUOUS
 10
986.73994445800724
 20
1485.2398910522461
 30
0.0
 11
1025.7398071289069
 21
1485.2398910522461
 31
0.0
  0
LINE
  5
3BD
  8
1
  6
CONTINUOUS
 10
986.73994445800724
 20
1466.239952087401
 30
0.0
 11
986.73994445800724
 21
1485.2398910522461
 31
0.0
  0
LINE
  5
3C1
  8
1
  6
CONTINUOUS
 10
1628.7679138183571
 20
1485.740074157716
 30
0.0
 11
1626.239990234378
 21
1485.740074157716
 31
0.0
  0
LINE
  5
3C5
  8
1
  6
CONTINUOUS
 10
1625.7398071289081
 20
1485.2398910522461
 30
0.0
 11
1625.7398071289081
 21
1466.2398757934609
 31
0.0
  0
LINE
  5
3FC
  8
1
  6
CONTINUOUS
 10
1025.7398071289069
 20
1466.239952087401
 30
0.0
 11
986.73994445800724
 21
1466.239952087401
 31
0.0
  0
LINE
  5
40B
  8
1
  6
CONTINUOUS
 10
1645.2399291992169
 20
1066.239952087401
 30
0.0
 11
1626.239990234378
 21
1066.239952087401
 31
0.0
  0
LINE
  5
410
  8
1
  6
CONTINUOUS
 10
1625.7398071289081
 20
1066.239952087401
 30
0.0
 11
1586.739868164062
 21
1066.239952087401
 31
0.0
  0
LINE
  5
422
  8
1
  6
CONTINUOUS
 10
1476.2398376464821
 20
1705.4901351928711
 30
0.0
 11
1489.7398986816429
 21
1705.4901351928711
 31
0.0
  0
LINE
  5
423
  8
1
  6
CONTINUOUS
 10
1489.7398986816429
 20
1705.4901351928711
 30
0.0
 11
1489.7398986816429
 21
1645.4899826049809
 31
0.0
  0
LINE
  5
425
  8
1
  6
CONTINUOUS
 10
1489.7398986816429
 20
1645.4899826049809
 30
0.0
 11
1476.2398376464821
 21
1645.4899826049809
 31
0.0
  0
LINE
  5
429
  8
1
  6
CONTINUOUS
 10
1476.2398376464821
 20
1645.4899826049809
 30
0.0
 11
1476.2398376464821
 21
1705.4901351928711
 31
0.0
  0
LINE
  5
42A
  8
1
  6
CONTINUOUS
 10
986.23991394042741
 20
1047.239936828616
 30
0.0
 11
986.23991394042741
 21
1066.239952087401
 31
0.0
  0
LINE
  5
42B
  8
1
  6
CONTINUOUS
 10
1085.2399291992169
 20
1047.239936828616
 30
0.0
 11
1085.2399291992169
 21
1066.239952087401
 31
0.0
  0
LINE
  5
42D
  8
1
  6
CONTINUOUS
 10
967.23982238769725
 20
1047.239936828616
 30
0.0
 11
986.23991394042741
 21
1047.239936828616
 31
0.0
  0
LINE
  5
42F
  8
1
  6
CONTINUOUS
 10
1489.7398986816429
 20
1515.4899826049809
 30
0.0
 11
1476.2398376464821
 21
1515.4899826049809
 31
0.0
  0
LINE
  5
430
  8
1
  6
CONTINUOUS
 10
1476.2398376464821
 20
1575.4899826049809
 30
0.0
 11
1489.7398986816429
 21
1575.4899826049809
 31
0.0
  0
LINE
  5
431
  8
1
  6
CONTINUOUS
 10
1476.2398376464821
 20
1515.4899826049809
 30
0.0
 11
1476.2398376464821
 21
1575.4899826049809
 31
0.0
  0
LINE
  5
432
  8
1
  6
CONTINUOUS
 10
967.23982238769725
 20
1066.239952087401
 30
0.0
 11
967.23982238769725
 21
1047.239936828616
 31
0.0
  0
LINE
  5
433
  8
1
  6
CONTINUOUS
 10
1489.7398986816429
 20
1575.4899826049809
 30
0.0
 11
1489.7398986816429
 21
1515.4899826049809
 31
0.0
  0
LINE
  5
47D
  8
1
  6
CONTINUOUS
 10
1645.2399291992169
 20
2024.2399826049809
 30
0.0
 11
1645.2399291992169
 21
2005.240043640136
 31
0.0
  0
LINE
  5
49C
  8
1
  6
CONTINUOUS
 10
967.23982238769725
 20
2005.240043640136
 30
0.0
 11
967.23982238769725
 21
2024.2399826049809
 31
0.0
  0
LINE
  5
49E
  8
1
  6
CONTINUOUS
 62
     5
 10
826.73986816406239
 20
2027.2400131225611
 30
0.0
 11
1648.2398071289069
 21
2027.2400131225611
 31
0.0
  0
LINE
  5
4B2
  8
1
  6
CONTINUOUS
 10
1626.239990234378
 20
2005.240043640136
 30
0.0
 11
1645.2399291992169
 21
2005.240043640136
 31
0.0
  0
LINE
  5
4C5
  8
1
  6
CONTINUOUS
 10
1626.239990234378
 20
1485.740074157716
 30
0.0
 11
1626.239990234378
 21
2004.740013122562
 31
0.0
  0
LINE
  5
4ED
  8
1
  6
CONTINUOUS
 10
1626.239990234378
 20
2004.7400131225611
 30
0.0
 11
1645.2399291992169
 21
2004.7400131225611
 31
0.0
  0
LINE
  5
4F1
  8
1
  6
CONTINUOUS
 10
1625.7398071289081
 20
2024.2399826049809
 30
0.0
 11
1625.7398071289081
 21
2005.240043640136
 31
0.0
  0
LINE
  5
4FA
  8
1
  6
CONTINUOUS
 10
1625.7398071289081
 20
2005.240043640136
 30
0.0
 11
967.23982238769725
 21
2005.240043640136
 31
0.0
  0
LINE
  5
505
  8
1
  6
CONTINUOUS
 10
1645.2399291992169
 20
1485.740074157716
 30
0.0
 11
1626.239990234378
 21
1485.740074157716
 31
0.0
  0
LINE
  5
537
  8
1
  6
CONTINUOUS
 10
1645.2399291992169
 20
2024.2399826049809
 30
0.0
 11
1626.239990234378
 21
2024.2399826049809
 31
0.0
  0
LINE
  5
53A
  8
1
  6
CONTINUOUS
 10
1645.2399291992169
 20
1066.7399826049809
 30
0.0
 11
1626.239990234378
 21
1066.7399826049809
 31
0.0
  0
LINE
  5
63F
  8
1
  6
CONTINUOUS
 10
1626.239990234378
 20
647.74004364013604
 30
0.0
 11
1626.239990234378
 21
1046.7399063110361
 31
0.0
  0
LINE
  5
642
  8
1
  6
CONTINUOUS
 10
1645.2399291992169
 20
647.74004364013604
 30
0.0
 11
1626.239990234378
 21
647.74004364013604
 31
0.0
  0
LINE
  5
658
  8
1
  6
CONTINUOUS
 10
1626.239990234378
 20
1046.7399063110361
 30
0.0
 11
1645.2399291992169
 21
1046.7399063110361
 31
0.0
  0
LINE
  5
699
  8
1
  6
CONTINUOUS
 10
967.23982238769725
 20
2024.2399826049809
 30
0.0
 11
1625.7398071289081
 21
2024.2399826049809
 31
0.0
  0
LINE
  5
72E
  8
1
  6
CONTINUOUS
 10
1626.239990234378
 20
2024.2399826049809
 30
0.0
 11
1626.239990234378
 21
2005.240043640136
 31
0.0
  0
LINE
  5
735
  8
CENTERLINE
  6
CENTER
 10
400.91297571604071
 20
2014.7400131225611
 30
0.0
 11
1835.7398071289069
 21
2014.7400131225611
 31
0.0
  0
LINE
  5
736
  8
CENTERLINE
  6
CENTER
 10
400.91297571604071
 20
1475.739921569826
 30
0.0
 11
1835.7398071289069
 21
1475.739921569826
 31
0.0
  0
LINE
  5
737
  8
CENTERLINE
  6
CENTER
 10
826.73986816406239
 20
637.74004364013604
 30
0.0
 11
1835.7398071289069
 21
637.74004364013604
 31
0.0
  0
LINE
  5
739
  8
CENTERLINE
  6
CENTER
 10
1635.7399597167971
 20
2330.037296508031
 30
0.0
 11
1635.7399597167971
 21
437.74000549316401
 31
0.0
  0
LINE
  5
73A
  8
CENTERLINE
  6
CENTER
 10
400.91297571604071
 20
1056.7399826049809
 30
0.0
 11
1835.7398071289069
 21
1056.7399826049809
 31
0.0
  0
LINE
  5
73B
  8
CENTERLINE
  6
CENTER
 10
3494.7400512695331
 20
2330.037296508031
 30
0.0
 11
3494.7400512695331
 21
437.74000549316401
 31
0.0
  0
LINE
  5
73C
  8
CENTERLINE
  6
CENTER
 10
2835.7398071289072
 20
2330.037296508031
 30
0.0
 11
2835.7398071289072
 21
437.74000549316401
 31
0.0
  0
LINE
  5
73D
  8
CENTERLINE
  6
CENTER
 10
2308.71296350901
 20
2014.7400131225611
 30
0.0
 11
3694.7397460937518
 21
2014.7400131225611
 31
0.0
  0
LINE
  5
73E
  8
CENTERLINE
  6
CENTER
 10
2308.71296350901
 20
1475.739921569826
 30
0.0
 11
3694.7397460937518
 21
1475.739921569826
 31
0.0
  0
LINE
  5
73F
  8
CENTERLINE
  6
CENTER
 10
2308.71296350901
 20
1056.7399826049809
 30
0.0
 11
3694.7397460937518
 21
1056.7399826049809
 31
0.0
  0
LINE
  5
740
  8
CENTERLINE
  6
CENTER
 10
2308.71296350901
 20
637.74004364013604
 30
0.0
 11
3694.7397460937518
 21
637.74004364013604
 31
0.0
  0
POLYLINE
  5
A42
  8
4
  6
DASHED1
 66
     1
 10
0.0
 20
0.0
 30
0.0
  0
VERTEX
  5
1B15
  8
4
  6
DASHED1
 10
1200.9625854492169
 20
1788.8414230346659
 30
0.0
  0
VERTEX
  5
1B16
  8
4
  6
DASHED1
 10
1181.5673675537121
 20
1788.718437194826
 30
0.0
  0
VERTEX
  5
1B17
  8
4
  6
DASHED1
 10
1161.109298706052
 20
1788.6938705444311
 30
0.0
  0
VERTEX
  5
1B18
  8
4
  6
DASHED1
 10
1146.979660034177
 20
1788.9148178100561
 30
0.0
  0
VERTEX
  5
1B19
  8
4
  6
DASHED1
 10
1139.942764282227
 20
1790.854209899901
 30
0.0
  0
VERTEX
  5
1B1A
  8
4
  6
DASHED1
 10
1135.5147399902321
 20
1794.6098556518559
 30
0.0
  0
VERTEX
  5
1B1B
  8
4
  6
DASHED1
 10
1133.212036132812
 20
1798.2672348022461
 30
0.0
  0
VERTEX
  5
1B1C
  8
4
  6
DASHED1
 10
1132.5518646240221
 20
1799.9119796752909
 30
0.0
  0
VERTEX
  5
1B1D
  8
4
  6
DASHED1
 10
1133.212036132812
 20
1798.2672348022461
 30
0.0
  0
SEQEND
  5
1B1E
  8
4
  6
DASHED1
  0
POLYLINE
  5
A4D
  8
4
  6
DASHED1
 66
     1
 10
0.0
 20
0.0
 30
0.0
  0
VERTEX
  5
1B1F
  8
4
  6
DASHED1
 10
1223.787750244142
 20
1792.891563415526
 30
0.0
  0
VERTEX
  5
1B20
  8
4
  6
DASHED1
 10
1220.535034179687
 20
1790.616783142091
 30
0.0
  0
VERTEX
  5
1B21
  8
4
  6
DASHED1
 10
1216.3161315917971
 20
1789.323905944826
 30
0.0
  0
VERTEX
  5
1B22
  8
4
  6
DASHED1
 10
1211.9041290283219
 20
1788.9148178100561
 30
0.0
  0
VERTEX
  5
1B23
  8
4
  6
DASHED1
 10
1216.3161315917971
 20
1789.323905944826
 30
0.0
  0
SEQEND
  5
1B24
  8
4
  6
DASHED1
  0
POLYLINE
  5
A54
  8
4
  6
DASHED1
 66
     1
 10
0.0
 20
0.0
 30
0.0
  0
VERTEX
  5
1B25
  8
4
  6
DASHED1
 10
1200.9625854492169
 20
1972.267021179201
 30
0.0
  0
VERTEX
  5
1B26
  8
4
  6
DASHED1
 10
1181.5673675537121
 20
1972.389854431151
 30
0.0
  0
VERTEX
  5
1B27
  8
4
  6
DASHED1
 10
1161.109298706052
 20
1972.414268493651
 30
0.0
  0
VERTEX
  5
1B28
  8
4
  6
DASHED1
 10
1146.979660034177
 20
1972.193321228026
 30
0.0
  0
VERTEX
  5
1B29
  8
4
  6
DASHED1
 10
1139.942764282227
 20
1970.254234313966
 30
0.0
  0
VERTEX
  5
1B2A
  8
4
  6
DASHED1
 10
1135.5147399902321
 20
1966.498741149901
 30
0.0
  0
VERTEX
  5
1B2B
  8
4
  6
DASHED1
 10
1133.212036132812
 20
1962.8412094116211
 30
0.0
  0
VERTEX
  5
1B2C
  8
4
  6
DASHED1
 10
1132.5518646240221
 20
1961.1967697143559
 30
0.0
  0
VERTEX
  5
1B2D
  8
4
  6
DASHED1
 10
1133.212036132812
 20
1962.8412094116211
 30
0.0
  0
SEQEND
  5
1B2E
  8
4
  6
DASHED1
  0
POLYLINE
  5
A5F
  8
4
  6
DASHED1
 66
     1
 10
0.0
 20
0.0
 30
0.0
  0
VERTEX
  5
1B2F
  8
4
  6
DASHED1
 10
1223.787750244142
 20
1968.216728210451
 30
0.0
  0
VERTEX
  5
1B30
  8
4
  6
DASHED1
 10
1220.535034179687
 20
1970.491508483886
 30
0.0
  0
VERTEX
  5
1B31
  8
4
  6
DASHED1
 10
1216.3161315917971
 20
1971.784233093261
 30
0.0
  0
VERTEX
  5
1B32
  8
4
  6
DASHED1
 10
1211.9041290283219
 20
1972.193321228026
 30
0.0
  0
VERTEX
  5
1B33
  8
4
  6
DASHED1
 10
1216.3161315917971
 20
1971.784233093261
 30
0.0
  0
SEQEND
  5
1B34
  8
4
  6
DASHED1
  0
POLYLINE
  5
A66
  8
4
  6
DASHED1
 66
     1
 10
0.0
 20
0.0
 30
0.0
  0
VERTEX
  5
1B35
  8
4
  6
DASHED1
 10
1465.298217773437
 20
1788.8414230346659
 30
0.0
  0
VERTEX
  5
1B36
  8
4
  6
DASHED1
 10
1445.903076171872
 20
1788.718437194826
 30
0.0
  0
VERTEX
  5
1B37
  8
4
  6
DASHED1
 10
1425.4451599121071
 20
1788.6938705444311
 30
0.0
  0
VERTEX
  5
1B38
  8
4
  6
DASHED1
 10
1411.3153686523419
 20
1788.9148178100561
 30
0.0
  0
VERTEX
  5
1B39
  8
4
  6
DASHED1
 10
1404.520172119142
 20
1790.3631820678711
 30
0.0
  0
VERTEX
  5
1B3A
  8
4
  6
DASHED1
 10
1400.6233825683571
 20
1793.0388107299809
 30
0.0
  0
VERTEX
  5
1B3B
  8
4
  6
DASHED1
 10
1398.8521423339821
 20
1795.616020202636
 30
0.0
  0
VERTEX
  5
1B3C
  8
4
  6
DASHED1
 10
1398.4334411621071
 20
1796.769737243651
 30
0.0
  0
VERTEX
  5
1B3D
  8
4
  6
DASHED1
 10
1398.8521423339821
 20
1795.616020202636
 30
0.0
  0
SEQEND
  5
1B3E
  8
4
  6
DASHED1
  0
POLYLINE
  5
A71
  8
4
  6
DASHED1
 66
     1
 10
0.0
 20
0.0
 30
0.0
  0
VERTEX
  5
1B3F
  8
4
  6
DASHED1
 10
1488.123535156247
 20
1792.891563415526
 30
0.0
  0
VERTEX
  5
1B40
  8
4
  6
DASHED1
 10
1484.8708190917971
 20
1790.616783142091
 30
0.0
  0
VERTEX
  5
1B41
  8
4
  6
DASHED1
 10
1480.6519165039081
 20
1789.323905944826
 30
0.0
  0
VERTEX
  5
1B42
  8
4
  6
DASHED1
 10
1476.2398376464821
 20
1788.9148178100561
 30
0.0
  0
VERTEX
  5
1B43
  8
4
  6
DASHED1
 10
1480.6519165039081
 20
1789.323905944826
 30
0.0
  0
SEQEND
  5
1B44
  8
4
  6
DASHED1
  0
POLYLINE
  5
A78
  8
4
  6
DASHED1
 66
     1
 10
0.0
 20
0.0
 30
0.0
  0
VERTEX
  5
1B45
  8
4
  6
DASHED1
 10
1465.298217773437
 20
1972.267021179201
 30
0.0
  0
VERTEX
  5
1B46
  8
4
  6
DASHED1
 10
1445.903076171872
 20
1972.389854431151
 30
0.0
  0
VERTEX
  5
1B47
  8
4
  6
DASHED1
 10
1425.4451599121071
 20
1972.414268493651
 30
0.0
  0
VERTEX
  5
1B48
  8
4
  6
DASHED1
 10
1411.3153686523419
 20
1972.193321228026
 30
0.0
  0
VERTEX
  5
1B49
  8
4
  6
DASHED1
 10
1404.761718750002
 20
1970.8270492553711
 30
0.0
  0
VERTEX
  5
1B4A
  8
4
  6
DASHED1
 10
1401.396240234377
 20
1968.3313217163111
 30
0.0
  0
VERTEX
  5
1B4B
  8
4
  6
DASHED1
 10
1400.1563110351569
 20
1965.934165954591
 30
0.0
  0
VERTEX
  5
1B4C
  8
4
  6
DASHED1
 10
1399.9793090820319
 20
1964.862388610841
 30
0.0
  0
VERTEX
  5
1B4D
  8
4
  6
DASHED1
 10
1400.1563110351569
 20
1965.934165954591
 30
0.0
  0
SEQEND
  5
1B4E
  8
4
  6
DASHED1
  0
POLYLINE
  5
A83
  8
4
  6
DASHED1
 66
     1
 10
0.0
 20
0.0
 30
0.0
  0
VERTEX
  5
1B4F
  8
4
  6
DASHED1
 10
1488.123535156247
 20
1968.216728210451
 30
0.0
  0
VERTEX
  5
1B50
  8
4
  6
DASHED1
 10
1484.8708190917971
 20
1970.491508483886
 30
0.0
  0
VERTEX
  5
1B51
  8
4
  6
DASHED1
 10
1480.6519165039081
 20
1971.784233093261
 30
0.0
  0
VERTEX
  5
1B52
  8
4
  6
DASHED1
 10
1476.2398376464821
 20
1972.193321228026
 30
0.0
  0
VERTEX
  5
1B53
  8
4
  6
DASHED1
 10
1480.6519165039081
 20
1971.784233093261
 30
0.0
  0
SEQEND
  5
1B54
  8
4
  6
DASHED1
  0
POLYLINE
  5
A98
  8
4
  6
DASHED1
 66
     1
 10
0.0
 20
0.0
 30
0.0
  0
VERTEX
  5
1B55
  8
4
  6
DASHED1
 10
1263.2222595214821
 20
1941.9688644409159
 30
0.0
  0
VERTEX
  5
1B56
  8
4
  6
DASHED1
 10
1249.9056091308571
 20
1945.879844665526
 30
0.0
  0
VERTEX
  5
1B57
  8
4
  6
DASHED1
 10
1237.1686401367169
 20
1949.5945968627909
 30
0.0
  0
VERTEX
  5
1B58
  8
4
  6
DASHED1
 10
1231.4845886230471
 20
1951.2475814819361
 30
0.0
  0
VERTEX
  5
1B59
  8
4
  6
DASHED1
 10
1228.2672729492169
 20
1943.6249008178711
 30
0.0
  0
VERTEX
  5
1B5A
  8
4
  6
DASHED1
 10
1225.550903320312
 20
1934.7441329956059
 30
0.0
  0
VERTEX
  5
1B5B
  8
4
  6
DASHED1
 10
1223.305572509767
 20
1924.9675216674809
 30
0.0
  0
VERTEX
  5
1B5C
  8
4
  6
DASHED1
 10
1221.5010681152321
 20
1914.6570053100561
 30
0.0
  0
VERTEX
  5
1B5D
  8
4
  6
DASHED1
 10
1220.107177734377
 20
1904.1748275756861
 30
0.0
  0
VERTEX
  5
1B5E
  8
4
  6
DASHED1
 10
1219.0938415527321
 20
1893.8829269409159
 30
0.0
  0
VERTEX
  5
1B5F
  8
4
  6
DASHED1
 10
1218.430541992187
 20
1884.1429367065409
 30
0.0
  0
VERTEX
  5
1B60
  8
4
  6
DASHED1
 10
1218.087524414062
 20
1875.3178634643559
 30
0.0
  0
VERTEX
  5
1B61
  8
4
  6
DASHED1
 10
1219.2145385742169
 20
1856.9323959350561
 30
0.0
  0
VERTEX
  5
1B62
  8
4
  6
DASHED1
 10
1222.4672546386721
 20
1837.4182357788061
 30
0.0
  0
VERTEX
  5
1B63
  8
4
  6
DASHED1
 10
1226.492828369142
 20
1820.751670837401
 30
0.0
  0
VERTEX
  5
1B64
  8
4
  6
DASHED1
 10
1229.9388732910179
 20
1810.908378601076
 30
0.0
  0
VERTEX
  5
1B65
  8
4
  6
DASHED1
 10
1226.492828369142
 20
1820.751670837401
 30
0.0
  0
SEQEND
  5
1B66
  8
4
  6
DASHED1
  0
POLYLINE
  5
AAB
  8
4
  6
DASHED1
 66
     1
 10
0.0
 20
0.0
 30
0.0
  0
VERTEX
  5
1B67
  8
4
  6
DASHED1
 10
1270.653442382812
 20
1839.684776306151
 30
0.0
  0
VERTEX
  5
1B68
  8
4
  6
DASHED1
 10
1268.6487426757831
 20
1850.247978210451
 30
0.0
  0
VERTEX
  5
1B69
  8
4
  6
DASHED1
 10
1267.1269836425779
 20
1862.872642517091
 30
0.0
  0
VERTEX
  5
1B6A
  8
4
  6
DASHED1
 10
1266.523193359377
 20
1875.841239929201
 30
0.0
  0
VERTEX
  5
1B6B
  8
4
  6
DASHED1
 10
1267.5215759277321
 20
1890.290702819826
 30
0.0
  0
VERTEX
  5
1B6C
  8
4
  6
DASHED1
 10
1269.8723449707029
 20
1906.213096618651
 30
0.0
  0
VERTEX
  5
1B6D
  8
4
  6
DASHED1
 10
1272.609771728517
 20
1920.171684265136
 30
0.0
  0
VERTEX
  5
1B6E
  8
4
  6
DASHED1
 10
1274.7676696777321
 20
1928.730186462401
 30
0.0
  0
VERTEX
  5
1B6F
  8
4
  6
DASHED1
 10
1275.4277648925779
 20
1932.9522933959961
 30
0.0
  0
VERTEX
  5
1B70
  8
4
  6
DASHED1
 10
1274.6387329101581
 20
1936.1924972534159
 30
0.0
  0
VERTEX
  5
1B71
  8
4
  6
DASHED1
 10
1272.883666992187
 20
1938.4504928588849
 30
0.0
  0
VERTEX
  5
1B72
  8
4
  6
DASHED1
 10
1270.645507812502
 20
1939.7271957397461
 30
0.0
  0
VERTEX
  5
1B73
  8
4
  6
DASHED1
 10
1272.883666992187
 20
1938.4504928588849
 30
0.0
  0
SEQEND
  5
1B74
  8
4
  6
DASHED1
  0
POLYLINE
  5
ABA
  8
4
  6
DASHED1
 66
     1
 10
0.0
 20
0.0
 30
0.0
  0
VERTEX
  5
1B75
  8
4
  6
DASHED1
 10
1235.5342712402321
 20
1812.242149353026
 30
0.0
  0
VERTEX
  5
1B76
  8
4
  6
DASHED1
 10
1248.037628173827
 20
1815.2940597534159
 30
0.0
  0
VERTEX
  5
1B77
  8
4
  6
DASHED1
 10
1261.0242309570319
 20
1818.640312194826
 30
0.0
  0
VERTEX
  5
1B78
  8
4
  6
DASHED1
 10
1268.0690612792971
 20
1820.8575668334961
 30
0.0
  0
VERTEX
  5
1B79
  8
4
  6
DASHED1
 10
1270.242828369142
 20
1822.592338562011
 30
0.0
  0
VERTEX
  5
1B7A
  8
4
  6
DASHED1
 10
1272.3201599121071
 20
1825.3087081909159
 30
0.0
  0
VERTEX
  5
1B7B
  8
4
  6
DASHED1
 10
1273.431152343747
 20
1828.810600280761
 30
0.0
  0
VERTEX
  5
1B7C
  8
4
  6
DASHED1
 10
1272.7065124511721
 20
1832.901786804201
 30
0.0
  0
VERTEX
  5
1B7D
  8
4
  6
DASHED1
 10
1273.431152343747
 20
1828.810600280761
 30
0.0
  0
SEQEND
  5
1B7E
  8
4
  6
DASHED1
  0
POLYLINE
  5
AC5
  8
4
  6
DASHED1
 66
     1
 10
0.0
 20
0.0
 30
0.0
  0
VERTEX
  5
1B7F
  8
4
  6
DASHED1
 10
1207.6067962646471
 20
1827.561973571776
 30
0.0
  0
VERTEX
  5
1B80
  8
4
  6
DASHED1
 10
1205.8335723876969
 20
1844.610313415526
 30
0.0
  0
VERTEX
  5
1B81
  8
4
  6
DASHED1
 10
1204.9056091308571
 20
1863.609947204591
 30
0.0
  0
VERTEX
  5
1B82
  8
4
  6
DASHED1
 10
1204.690231323242
 20
1883.4996261596659
 30
0.0
  0
VERTEX
  5
1B83
  8
4
  6
DASHED1
 10
1205.054534912108
 20
1903.217491149901
 30
0.0
  0
VERTEX
  5
1B84
  8
4
  6
DASHED1
 10
1205.865615844727
 20
1921.701835632326
 30
0.0
  0
VERTEX
  5
1B85
  8
4
  6
DASHED1
 10
1206.9907989501969
 20
1937.8912582397461
 30
0.0
  0
VERTEX
  5
1B86
  8
4
  6
DASHED1
 10
1208.297256469727
 20
1950.7238998413111
 30
0.0
  0
VERTEX
  5
1B87
  8
4
  6
DASHED1
 10
1206.9907989501969
 20
1937.8912582397461
 30
0.0
  0
SEQEND
  5
1B88
  8
4
  6
DASHED1
  0
POLYLINE
  5
AD0
  8
4
  6
DASHED1
 66
     1
 10
0.0
 20
0.0
 30
0.0
  0
VERTEX
  5
1B89
  8
4
  6
DASHED1
 10
1118.639434814452
 20
1814.5739974975611
 30
0.0
  0
VERTEX
  5
1B8A
  8
4
  6
DASHED1
 10
1129.6996917724621
 20
1811.2449874877909
 30
0.0
  0
VERTEX
  5
1B8B
  8
4
  6
DASHED1
 10
1144.5158233642569
 20
1808.6584701538061
 30
0.0
  0
VERTEX
  5
1B8C
  8
4
  6
DASHED1
 10
1161.6265716552721
 20
1806.722129821776
 30
0.0
  0
VERTEX
  5
1B8D
  8
4
  6
DASHED1
 10
1179.5707550048819
 20
1805.3447189331059
 30
0.0
  0
VERTEX
  5
1B8E
  8
4
  6
DASHED1
 10
1196.886734008787
 20
1804.433158874511
 30
0.0
  0
VERTEX
  5
1B8F
  8
4
  6
DASHED1
 10
1212.1134796142569
 20
1803.896202087401
 30
0.0
  0
VERTEX
  5
1B90
  8
4
  6
DASHED1
 10
1223.7897338867169
 20
1803.641532897951
 30
0.0
  0
VERTEX
  5
1B91
  8
4
  6
DASHED1
 10
1230.4541625976569
 20
1803.5772933959961
 30
0.0
  0
VERTEX
  5
1B92
  8
4
  6
DASHED1
 10
1223.7897338867169
 20
1803.641532897951
 30
0.0
  0
SEQEND
  5
1B93
  8
4
  6
DASHED1
  0
POLYLINE
  5
ADC
  8
4
  6
DASHED1
 66
     1
 10
0.0
 20
0.0
 30
0.0
  0
VERTEX
  5
1B94
  8
4
  6
DASHED1
 10
1123.7872161865221
 20
1847.740043640136
 30
0.0
  0
VERTEX
  5
1B95
  8
4
  6
DASHED1
 10
1134.7015228271471
 20
1845.862144470216
 30
0.0
  0
VERTEX
  5
1B96
  8
4
  6
DASHED1
 10
1148.2607116699221
 20
1844.475273132326
 30
0.0
  0
VERTEX
  5
1B97
  8
4
  6
DASHED1
 10
1162.8886260986319
 20
1843.5058822631811
 30
0.0
  0
VERTEX
  5
1B98
  8
4
  6
DASHED1
 10
1177.009414672852
 20
1842.879814147951
 30
0.0
  0
VERTEX
  5
1B99
  8
4
  6
DASHED1
 10
1189.046768188477
 20
1842.5236740112309
 30
0.0
  0
VERTEX
  5
1B9A
  8
4
  6
DASHED1
 10
1197.425064086912
 20
1842.3643722534159
 30
0.0
  0
VERTEX
  5
1B9B
  8
4
  6
DASHED1
 10
1200.5680694580069
 20
1842.327445983886
 30
0.0
  0
VERTEX
  5
1B9C
  8
4
  6
DASHED1
 10
1197.425064086912
 20
1842.3643722534159
 30
0.0
  0
SEQEND
  5
1B9D
  8
4
  6
DASHED1
  0
POLYLINE
  5
AE7
  8
4
  6
DASHED1
 66
     1
 10
0.0
 20
0.0
 30
0.0
  0
VERTEX
  5
1B9E
  8
4
  6
DASHED1
 10
1118.639434814452
 20
1947.581962585451
 30
0.0
  0
VERTEX
  5
1B9F
  8
4
  6
DASHED1
 10
1129.6996917724621
 20
1950.910820007326
 30
0.0
  0
VERTEX
  5
1BA0
  8
4
  6
DASHED1
 10
1144.5158233642569
 20
1953.4973373413111
 30
0.0
  0
VERTEX
  5
1BA1
  8
4
  6
DASHED1
 10
1161.6265716552721
 20
1955.433525085451
 30
0.0
  0
VERTEX
  5
1BA2
  8
4
  6
DASHED1
 10
1179.5707550048819
 20
1956.811241149901
 30
0.0
  0
VERTEX
  5
1BA3
  8
4
  6
DASHED1
 10
1196.886734008787
 20
1957.722343444826
 30
0.0
  0
VERTEX
  5
1BA4
  8
4
  6
DASHED1
 10
1212.1134796142569
 20
1958.2591476440409
 30
0.0
  0
VERTEX
  5
1BA5
  8
4
  6
DASHED1
 10
1223.7897338867169
 20
1958.5139694213849
 30
0.0
  0
VERTEX
  5
1BA6
  8
4
  6
DASHED1
 10
1230.4541625976569
 20
1958.5783615112309
 30
0.0
  0
VERTEX
  5
1BA7
  8
4
  6
DASHED1
 10
1223.7897338867169
 20
1958.5139694213849
 30
0.0
  0
SEQEND
  5
1BA8
  8
4
  6
DASHED1
  0
POLYLINE
  5
AF3
  8
4
  6
DASHED1
 66
     1
 10
0.0
 20
0.0
 30
0.0
  0
VERTEX
  5
1BA9
  8
4
  6
DASHED1
 10
1123.7872161865221
 20
1914.4157638549809
 30
0.0
  0
VERTEX
  5
1BAA
  8
4
  6
DASHED1
 10
1134.7015228271471
 20
1916.2933578491211
 30
0.0
  0
VERTEX
  5
1BAB
  8
4
  6
DASHED1
 10
1148.2607116699221
 20
1917.680229187011
 30
0.0
  0
VERTEX
  5
1BAC
  8
4
  6
DASHED1
 10
1162.8886260986319
 20
1918.6499252319361
 30
0.0
  0
VERTEX
  5
1BAD
  8
4
  6
DASHED1
 10
1177.009414672852
 20
1919.2759933471659
 30
0.0
  0
VERTEX
  5
1BAE
  8
4
  6
DASHED1
 10
1189.046768188477
 20
1919.6318283081059
 30
0.0
  0
VERTEX
  5
1BAF
  8
4
  6
DASHED1
 10
1197.425064086912
 20
1919.7912826538061
 30
0.0
  0
VERTEX
  5
1BB0
  8
4
  6
DASHED1
 10
1200.5680694580069
 20
1919.828208923341
 30
0.0
  0
VERTEX
  5
1BB1
  8
4
  6
DASHED1
 10
1197.425064086912
 20
1919.7912826538061
 30
0.0
  0
SEQEND
  5
1BB2
  8
4
  6
DASHED1
  0
POLYLINE
  5
AFE
  8
4
  6
DASHED1
 66
     1
 10
0.0
 20
0.0
 30
0.0
  0
VERTEX
  5
1BB3
  8
4
  6
DASHED1
 10
1278.8899841308571
 20
1819.8102035522461
 30
0.0
  0
VERTEX
  5
1BB4
  8
4
  6
DASHED1
 10
1332.4782409667971
 20
1820.8575668334961
 30
0.0
  0
VERTEX
  5
1BB5
  8
4
  6
DASHED1
 10
1326.8103637695319
 20
1806.195396423341
 30
0.0
  0
VERTEX
  5
1BB6
  8
4
  6
DASHED1
 10
1239.7292175292971
 20
1806.195396423341
 30
0.0
  0
VERTEX
  5
1BB7
  8
4
  6
DASHED1
 10
1326.8103637695319
 20
1806.195396423341
 30
0.0
  0
SEQEND
  5
1BB8
  8
4
  6
DASHED1
  0
POLYLINE
  5
B05
  8
4
  6
DASHED1
 66
     1
 10
0.0
 20
0.0
 30
0.0
  0
VERTEX
  5
1BB9
  8
4
  6
DASHED1
 10
1409.2542114257819
 20
1806.195396423341
 30
0.0
  0
VERTEX
  5
1BBA
  8
4
  6
DASHED1
 10
1395.8571472167971
 20
1818.762992858886
 30
0.0
  0
VERTEX
  5
1BBB
  8
4
  6
DASHED1
 10
1346.390747070312
 20
1819.8102035522461
 30
0.0
  0
VERTEX
  5
1BBC
  8
4
  6
DASHED1
 10
1343.2991638183571
 20
1806.195396423341
 30
0.0
  0
VERTEX
  5
1BBD
  8
4
  6
DASHED1
 10
1346.390747070312
 20
1819.8102035522461
 30
0.0
  0
SEQEND
  5
1BBE
  8
4
  6
DASHED1
  0
POLYLINE
  5
B0C
  8
4
  6
DASHED1
 66
     1
 10
0.0
 20
0.0
 30
0.0
  0
VERTEX
  5
1BBF
  8
4
  6
DASHED1
 10
1418.5291137695331
 20
1818.762992858886
 30
0.0
  0
VERTEX
  5
1BC0
  8
4
  6
DASHED1
 10
1498.9119567871071
 20
1819.286674499511
 30
0.0
  0
VERTEX
  5
1BC1
  8
4
  6
DASHED1
 10
1517.461914062497
 20
1806.7192306518559
 30
0.0
  0
VERTEX
  5
1BC2
  8
4
  6
DASHED1
 10
1432.956909179687
 20
1806.7192306518559
 30
0.0
  0
VERTEX
  5
1BC3
  8
4
  6
DASHED1
 10
1517.461914062497
 20
1806.7192306518559
 30
0.0
  0
SEQEND
  5
1BC4
  8
4
  6
DASHED1
  0
POLYLINE
  5
B13
  8
4
  6
DASHED1
 66
     1
 10
0.0
 20
0.0
 30
0.0
  0
VERTEX
  5
1BC5
  8
4
  6
DASHED1
 10
1278.8899841308571
 20
1941.2980880737309
 30
0.0
  0
VERTEX
  5
1BC6
  8
4
  6
DASHED1
 10
1332.4782409667971
 20
1940.250572204591
 30
0.0
  0
VERTEX
  5
1BC7
  8
4
  6
DASHED1
 10
1326.8103637695319
 20
1954.9127426147461
 30
0.0
  0
VERTEX
  5
1BC8
  8
4
  6
DASHED1
 10
1239.7292175292971
 20
1954.9127426147461
 30
0.0
  0
VERTEX
  5
1BC9
  8
4
  6
DASHED1
 10
1326.8103637695319
 20
1954.9127426147461
 30
0.0
  0
SEQEND
  5
1BCA
  8
4
  6
DASHED1
  0
POLYLINE
  5
B1A
  8
4
  6
DASHED1
 66
     1
 10
0.0
 20
0.0
 30
0.0
  0
VERTEX
  5
1BCB
  8
4
  6
DASHED1
 10
1409.2542114257819
 20
1954.9127426147461
 30
0.0
  0
VERTEX
  5
1BCC
  8
4
  6
DASHED1
 10
1395.8571472167971
 20
1942.345298767091
 30
0.0
  0
VERTEX
  5
1BCD
  8
4
  6
DASHED1
 10
1346.390747070312
 20
1941.2980880737309
 30
0.0
  0
VERTEX
  5
1BCE
  8
4
  6
DASHED1
 10
1343.2991638183571
 20
1954.9127426147461
 30
0.0
  0
VERTEX
  5
1BCF
  8
4
  6
DASHED1
 10
1346.390747070312
 20
1941.2980880737309
 30
0.0
  0
SEQEND
  5
1BD0
  8
4
  6
DASHED1
  0
POLYLINE
  5
B21
  8
4
  6
DASHED1
 66
     1
 10
0.0
 20
0.0
 30
0.0
  0
VERTEX
  5
1BD1
  8
4
  6
DASHED1
 10
1418.5291137695331
 20
1942.345298767091
 30
0.0
  0
VERTEX
  5
1BD2
  8
4
  6
DASHED1
 10
1498.9119567871071
 20
1941.8217697143559
 30
0.0
  0
VERTEX
  5
1BD3
  8
4
  6
DASHED1
 10
1517.461914062497
 20
1954.389213562011
 30
0.0
  0
VERTEX
  5
1BD4
  8
4
  6
DASHED1
 10
1432.956909179687
 20
1954.389213562011
 30
0.0
  0
VERTEX
  5
1BD5
  8
4
  6
DASHED1
 10
1517.461914062497
 20
1954.389213562011
 30
0.0
  0
SEQEND
  5
1BD6
  8
4
  6
DASHED1
  0
POLYLINE
  5
B28
  8
4
  6
DASHED1
 66
     1
 10
0.0
 20
0.0
 30
0.0
  0
VERTEX
  5
1BD7
  8
4
  6
DASHED1
 10
1343.2991638183571
 20
1920.698417663576
 30
0.0
  0
VERTEX
  5
1BD8
  8
4
  6
DASHED1
 10
1342.8398742675779
 20
1923.009361267091
 30
0.0
  0
VERTEX
  5
1BD9
  8
4
  6
DASHED1
 10
1341.587890625002
 20
1924.896568298341
 30
0.0
  0
VERTEX
  5
1BDA
  8
4
  6
DASHED1
 10
1339.7307434082029
 20
1926.169151306151
 30
0.0
  0
VERTEX
  5
1BDB
  8
4
  6
DASHED1
 10
1337.456573486327
 20
1926.6357650756861
 30
0.0
  0
VERTEX
  5
1BDC
  8
4
  6
DASHED1
 10
1339.7307434082029
 20
1926.169151306151
 30
0.0
  0
SEQEND
  5
1BDD
  8
4
  6
DASHED1
  0
POLYLINE
  5
B30
  8
4
  6
DASHED1
 66
     1
 10
0.0
 20
0.0
 30
0.0
  0
VERTEX
  5
1BDE
  8
4
  6
DASHED1
 10
1337.456573486327
 20
1833.9489974975611
 30
0.0
  0
VERTEX
  5
1BDF
  8
4
  6
DASHED1
 10
1339.7307434082029
 20
1834.415458679201
 30
0.0
  0
VERTEX
  5
1BE0
  8
4
  6
DASHED1
 10
1341.587890625002
 20
1835.688041687011
 30
0.0
  0
VERTEX
  5
1BE1
  8
4
  6
DASHED1
 10
1342.8398742675779
 20
1837.575401306151
 30
0.0
  0
VERTEX
  5
1BE2
  8
4
  6
DASHED1
 10
1343.2991638183571
 20
1839.8863449096659
 30
0.0
  0
VERTEX
  5
1BE3
  8
4
  6
DASHED1
 10
1342.8398742675779
 20
1837.575401306151
 30
0.0
  0
SEQEND
  5
1BE4
  8
4
  6
DASHED1
  0
POLYLINE
  5
B38
  8
4
  6
DASHED1
 66
     1
 10
0.0
 20
0.0
 30
0.0
  0
VERTEX
  5
1BE5
  8
4
  6
DASHED1
 10
1290.2258911132819
 20
1839.8863449096659
 30
0.0
  0
VERTEX
  5
1BE6
  8
4
  6
DASHED1
 10
1290.6848754882819
 20
1837.575401306151
 30
0.0
  0
VERTEX
  5
1BE7
  8
4
  6
DASHED1
 10
1291.9371643066429
 20
1835.688041687011
 30
0.0
  0
VERTEX
  5
1BE8
  8
4
  6
DASHED1
 10
1293.7941589355471
 20
1834.415458679201
 30
0.0
  0
VERTEX
  5
1BE9
  8
4
  6
DASHED1
 10
1296.068481445312
 20
1833.9489974975611
 30
0.0
  0
VERTEX
  5
1BEA
  8
4
  6
DASHED1
 10
1293.7941589355471
 20
1834.415458679201
 30
0.0
  0
SEQEND
  5
1BEB
  8
4
  6
DASHED1
  0
POLYLINE
  5
B40
  8
4
  6
DASHED1
 66
     1
 10
0.0
 20
0.0
 30
0.0
  0
VERTEX
  5
1BEC
  8
4
  6
DASHED1
 10
1296.068481445312
 20
1926.6357650756861
 30
0.0
  0
VERTEX
  5
1BED
  8
4
  6
DASHED1
 10
1293.7941589355471
 20
1926.169151306151
 30
0.0
  0
VERTEX
  5
1BEE
  8
4
  6
DASHED1
 10
1291.9371643066429
 20
1924.896568298341
 30
0.0
  0
VERTEX
  5
1BEF
  8
4
  6
DASHED1
 10
1290.6848754882819
 20
1923.009361267091
 30
0.0
  0
VERTEX
  5
1BF0
  8
4
  6
DASHED1
 10
1290.2258911132819
 20
1920.698417663576
 30
0.0
  0
VERTEX
  5
1BF1
  8
4
  6
DASHED1
 10
1290.6848754882819
 20
1923.009361267091
 30
0.0
  0
SEQEND
  5
1BF2
  8
4
  6
DASHED1
  0
POLYLINE
  5
B48
  8
4
  6
DASHED1
 66
     1
 10
0.0
 20
0.0
 30
0.0
  0
VERTEX
  5
1BF3
  8
4
  6
DASHED1
 10
1519.523071289062
 20
1932.919486999511
 30
0.0
  0
VERTEX
  5
1BF4
  8
4
  6
DASHED1
 10
1537.0422973632831
 20
1951.770957946776
 30
0.0
  0
VERTEX
  5
1BF5
  8
4
  6
DASHED1
 10
1537.0422973632831
 20
1811.4319076538061
 30
0.0
  0
VERTEX
  5
1BF6
  8
4
  6
DASHED1
 10
1519.523071289062
 20
1828.712486267091
 30
0.0
  0
VERTEX
  5
1BF7
  8
4
  6
DASHED1
 10
1537.0422973632831
 20
1811.4319076538061
 30
0.0
  0
SEQEND
  5
1BF8
  8
4
  6
DASHED1
  0
POLYLINE
  5
B4F
  8
4
  6
DASHED1
 66
     1
 10
0.0
 20
0.0
 30
0.0
  0
VERTEX
  5
1BF9
  8
4
  6
DASHED1
 10
1509.0474548339821
 20
1928.3325424194311
 30
0.0
  0
VERTEX
  5
1BFA
  8
4
  6
DASHED1
 10
1508.919586181642
 20
1915.957969665526
 30
0.0
  0
VERTEX
  5
1BFB
  8
4
  6
DASHED1
 10
1508.828033447267
 20
1899.4476547241211
 30
0.0
  0
VERTEX
  5
1BFC
  8
4
  6
DASHED1
 10
1508.7666931152321
 20
1880.8813705444311
 30
0.0
  0
VERTEX
  5
1BFD
  8
4
  6
DASHED1
 10
1508.7293090820319
 20
1862.3399581909159
 30
0.0
  0
VERTEX
  5
1BFE
  8
4
  6
DASHED1
 10
1508.710235595702
 20
1845.902885437011
 30
0.0
  0
VERTEX
  5
1BFF
  8
4
  6
DASHED1
 10
1508.703369140622
 20
1833.651451110841
 30
0.0
  0
VERTEX
  5
1C00
  8
4
  6
DASHED1
 10
1508.702148437497
 20
1827.6654281616211
 30
0.0
  0
VERTEX
  5
1C01
  8
4
  6
DASHED1
 10
1508.703369140622
 20
1833.651451110841
 30
0.0
  0
SEQEND
  5
1C02
  8
4
  6
DASHED1
  0
POLYLINE
  5
B5A
  8
4
  6
DASHED1
 66
     1
 10
0.0
 20
0.0
 30
0.0
  0
VERTEX
  5
1C03
  8
4
  6
DASHED1
 10
1524.120239257812
 20
1828.099082946776
 30
0.0
  0
VERTEX
  5
1C04
  8
4
  6
DASHED1
 10
1527.1877136230471
 20
1841.0838546752909
 30
0.0
  0
VERTEX
  5
1C05
  8
4
  6
DASHED1
 10
1529.772094726562
 20
1860.0580062866211
 30
0.0
  0
VERTEX
  5
1C06
  8
4
  6
DASHED1
 10
1530.8589782714821
 20
1883.6961593627909
 30
0.0
  0
VERTEX
  5
1C07
  8
4
  6
DASHED1
 10
1529.900878906247
 20
1906.3849105834961
 30
0.0
  0
VERTEX
  5
1C08
  8
4
  6
DASHED1
 10
1527.4452819824221
 20
1923.428520202636
 30
0.0
  0
VERTEX
  5
1C09
  8
4
  6
DASHED1
 10
1524.120239257812
 20
1934.875053405761
 30
0.0
  0
VERTEX
  5
1C0A
  8
4
  6
DASHED1
 10
1520.5536499023419
 20
1940.774253845216
 30
0.0
  0
VERTEX
  5
1C0B
  8
4
  6
DASHED1
 10
1516.8984069824221
 20
1942.443565368651
 30
0.0
  0
VERTEX
  5
1C0C
  8
4
  6
DASHED1
 10
1513.3397521972679
 20
1941.5599288940409
 30
0.0
  0
VERTEX
  5
1C0D
  8
4
  6
DASHED1
 10
1510.553955078127
 20
1938.712486267091
 30
0.0
  0
VERTEX
  5
1C0E
  8
4
  6
DASHED1
 10
1509.2175903320319
 20
1934.490531921386
 30
0.0
  0
VERTEX
  5
1C0F
  8
4
  6
DASHED1
 10
1510.553955078127
 20
1938.712486267091
 30
0.0
  0
SEQEND
  5
1C10
  8
4
  6
DASHED1
  0
POLYLINE
  5
B69
  8
4
  6
DASHED1
 66
     1
 10
0.0
 20
0.0
 30
0.0
  0
VERTEX
  5
1C11
  8
4
  6
DASHED1
 10
1510.1354064941429
 20
1822.1342697143559
 30
0.0
  0
VERTEX
  5
1C12
  8
4
  6
DASHED1
 10
1513.9839782714821
 20
1820.334190368651
 30
0.0
  0
VERTEX
  5
1C13
  8
4
  6
DASHED1
 10
1518.4120788574221
 20
1820.8905258178711
 30
0.0
  0
VERTEX
  5
1C14
  8
4
  6
DASHED1
 10
1521.584228515622
 20
1822.4284591674809
 30
0.0
  0
VERTEX
  5
1C15
  8
4
  6
DASHED1
 10
1518.4120788574221
 20
1820.8905258178711
 30
0.0
  0
SEQEND
  5
1C16
  8
4
  6
DASHED1
  0
POLYLINE
  5
B70
  8
4
  6
DASHED1
 66
     1
 10
0.0
 20
0.0
 30
0.0
  0
VERTEX
  5
1C17
  8
4
  6
DASHED1
 10
1537.9842224121071
 20
1801.515220642091
 30
0.0
  0
VERTEX
  5
1C18
  8
4
  6
DASHED1
 10
1533.9507141113279
 20
1796.769737243651
 30
0.0
  0
VERTEX
  5
1C19
  8
4
  6
DASHED1
 10
1537.9842224121071
 20
1801.515220642091
 30
0.0
  0
SEQEND
  5
1C1A
  8
4
  6
DASHED1
  0
POLYLINE
  5
B75
  8
4
  6
DASHED1
 66
     1
 10
0.0
 20
0.0
 30
0.0
  0
VERTEX
  5
1C1B
  8
4
  6
DASHED1
 10
1541.6799011230471
 20
1813.003105163576
 30
0.0
  0
VERTEX
  5
1C1C
  8
4
  6
DASHED1
 10
1541.413940429687
 20
1811.2030258178711
 30
0.0
  0
VERTEX
  5
1C1D
  8
4
  6
DASHED1
 10
1540.3270568847679
 20
1806.850151062011
 30
0.0
  0
VERTEX
  5
1C1E
  8
4
  6
DASHED1
 10
1541.413940429687
 20
1811.2030258178711
 30
0.0
  0
SEQEND
  5
1C1F
  8
4
  6
DASHED1
  0
POLYLINE
  5
B7B
  8
4
  6
DASHED1
 66
     1
 10
0.0
 20
0.0
 30
0.0
  0
VERTEX
  5
1C20
  8
4
  6
DASHED1
 10
1536.4626159667971
 20
1962.8984298706059
 30
0.0
  0
VERTEX
  5
1C21
  8
4
  6
DASHED1
 10
1539.6185913085919
 20
1958.4472885131811
 30
0.0
  0
VERTEX
  5
1C22
  8
4
  6
DASHED1
 10
1541.2288513183571
 20
1954.192680358886
 30
0.0
  0
VERTEX
  5
1C23
  8
4
  6
DASHED1
 10
1541.6799011230471
 20
1952.294639587401
 30
0.0
  0
VERTEX
  5
1C24
  8
4
  6
DASHED1
 10
1541.2288513183571
 20
1954.192680358886
 30
0.0
  0
SEQEND
  5
1C25
  8
4
  6
DASHED1
  0
POLYLINE
  5
B82
  8
4
  6
DASHED1
 66
     1
 10
0.0
 20
0.0
 30
0.0
  0
VERTEX
  5
1C26
  8
4
  6
DASHED1
 10
1518.4924926757831
 20
1911.449760437011
 30
0.0
  0
VERTEX
  5
1C27
  8
4
  6
DASHED1
 10
1518.2495727539081
 20
1912.6727523803711
 30
0.0
  0
VERTEX
  5
1C28
  8
4
  6
DASHED1
 10
1517.587036132812
 20
1913.671440124511
 30
0.0
  0
VERTEX
  5
1C29
  8
4
  6
DASHED1
 10
1516.604370117187
 20
1914.344810485841
 30
0.0
  0
VERTEX
  5
1C2A
  8
4
  6
DASHED1
 10
1515.400756835937
 20
1914.591850280761
 30
0.0
  0
VERTEX
  5
1C2B
  8
4
  6
DASHED1
 10
1516.604370117187
 20
1914.344810485841
 30
0.0
  0
SEQEND
  5
1C2C
  8
4
  6
DASHED1
  0
POLYLINE
  5
B8A
  8
4
  6
DASHED1
 66
     1
 10
0.0
 20
0.0
 30
0.0
  0
VERTEX
  5
1C2D
  8
4
  6
DASHED1
 10
1512.3091735839821
 20
1888.4088363647461
 30
0.0
  0
VERTEX
  5
1C2E
  8
4
  6
DASHED1
 10
1512.5520935058571
 20
1887.185997009276
 30
0.0
  0
VERTEX
  5
1C2F
  8
4
  6
DASHED1
 10
1513.2146301269529
 20
1886.1873092651349
 30
0.0
  0
VERTEX
  5
1C30
  8
4
  6
DASHED1
 10
1514.1974487304669
 20
1885.5137863159159
 30
0.0
  0
VERTEX
  5
1C31
  8
4
  6
DASHED1
 10
1515.400756835937
 20
1885.266899108886
 30
0.0
  0
VERTEX
  5
1C32
  8
4
  6
DASHED1
 10
1516.604370117187
 20
1885.5137863159159
 30
0.0
  0
VERTEX
  5
1C33
  8
4
  6
DASHED1
 10
1517.587036132812
 20
1886.1873092651349
 30
0.0
  0
VERTEX
  5
1C34
  8
4
  6
DASHED1
 10
1518.2495727539081
 20
1887.185997009276
 30
0.0
  0
VERTEX
  5
1C35
  8
4
  6
DASHED1
 10
1518.4924926757831
 20
1888.4088363647461
 30
0.0
  0
VERTEX
  5
1C36
  8
4
  6
DASHED1
 10
1518.2495727539081
 20
1887.185997009276
 30
0.0
  0
SEQEND
  5
1C37
  8
4
  6
DASHED1
  0
POLYLINE
  5
B96
  8
4
  6
DASHED1
 66
     1
 10
0.0
 20
0.0
 30
0.0
  0
VERTEX
  5
1C38
  8
4
  6
DASHED1
 10
1514.1974487304669
 20
1914.344810485841
 30
0.0
  0
VERTEX
  5
1C39
  8
4
  6
DASHED1
 10
1513.2146301269529
 20
1913.671440124511
 30
0.0
  0
VERTEX
  5
1C3A
  8
4
  6
DASHED1
 10
1512.5520935058571
 20
1912.6727523803711
 30
0.0
  0
VERTEX
  5
1C3B
  8
4
  6
DASHED1
 10
1512.3091735839821
 20
1911.449760437011
 30
0.0
  0
VERTEX
  5
1C3C
  8
4
  6
DASHED1
 10
1512.5520935058571
 20
1912.6727523803711
 30
0.0
  0
SEQEND
  5
1C3D
  8
4
  6
DASHED1
  0
POLYLINE
  5
B9D
  8
4
  6
DASHED1
 66
     1
 10
0.0
 20
0.0
 30
0.0
  0
VERTEX
  5
1C3E
  8
4
  6
DASHED1
 10
1518.4924926757831
 20
1874.7941818237309
 30
0.0
  0
VERTEX
  5
1C3F
  8
4
  6
DASHED1
 10
1518.2495727539081
 20
1876.0173263549809
 30
0.0
  0
VERTEX
  5
1C40
  8
4
  6
DASHED1
 10
1517.587036132812
 20
1877.0158615112309
 30
0.0
  0
VERTEX
  5
1C41
  8
4
  6
DASHED1
 10
1516.604370117187
 20
1877.6890792846659
 30
0.0
  0
VERTEX
  5
1C42
  8
4
  6
DASHED1
 10
1515.400756835937
 20
1877.935966491701
 30
0.0
  0
VERTEX
  5
1C43
  8
4
  6
DASHED1
 10
1516.604370117187
 20
1877.6890792846659
 30
0.0
  0
SEQEND
  5
1C44
  8
4
  6
DASHED1
  0
POLYLINE
  5
BA5
  8
4
  6
DASHED1
 66
     1
 10
0.0
 20
0.0
 30
0.0
  0
VERTEX
  5
1C45
  8
4
  6
DASHED1
 10
1512.3091735839821
 20
1851.7529525756861
 30
0.0
  0
VERTEX
  5
1C46
  8
4
  6
DASHED1
 10
1512.5520935058571
 20
1850.529960632326
 30
0.0
  0
VERTEX
  5
1C47
  8
4
  6
DASHED1
 10
1513.2146301269529
 20
1849.531425476076
 30
0.0
  0
VERTEX
  5
1C48
  8
4
  6
DASHED1
 10
1514.1974487304669
 20
1848.8580551147461
 30
0.0
  0
VERTEX
  5
1C49
  8
4
  6
DASHED1
 10
1515.400756835937
 20
1848.6114730834961
 30
0.0
  0
VERTEX
  5
1C4A
  8
4
  6
DASHED1
 10
1516.604370117187
 20
1848.8580551147461
 30
0.0
  0
VERTEX
  5
1C4B
  8
4
  6
DASHED1
 10
1517.587036132812
 20
1849.531425476076
 30
0.0
  0
VERTEX
  5
1C4C
  8
4
  6
DASHED1
 10
1518.2495727539081
 20
1850.529960632326
 30
0.0
  0
VERTEX
  5
1C4D
  8
4
  6
DASHED1
 10
1518.4924926757831
 20
1851.7529525756861
 30
0.0
  0
VERTEX
  5
1C4E
  8
4
  6
DASHED1
 10
1518.2495727539081
 20
1850.529960632326
 30
0.0
  0
SEQEND
  5
1C4F
  8
4
  6
DASHED1
  0
POLYLINE
  5
BB1
  8
4
  6
DASHED1
 66
     1
 10
0.0
 20
0.0
 30
0.0
  0
VERTEX
  5
1C50
  8
4
  6
DASHED1
 10
1514.1974487304669
 20
1877.6890792846659
 30
0.0
  0
VERTEX
  5
1C51
  8
4
  6
DASHED1
 10
1513.2146301269529
 20
1877.0158615112309
 30
0.0
  0
VERTEX
  5
1C52
  8
4
  6
DASHED1
 10
1512.5520935058571
 20
1876.0173263549809
 30
0.0
  0
VERTEX
  5
1C53
  8
4
  6
DASHED1
 10
1512.3091735839821
 20
1874.7941818237309
 30
0.0
  0
VERTEX
  5
1C54
  8
4
  6
DASHED1
 10
1512.5520935058571
 20
1876.0173263549809
 30
0.0
  0
SEQEND
  5
1C55
  8
4
  6
DASHED1
  0
POLYLINE
  5
BD8
  8
4
  6
DASHED1
 66
     1
 10
0.0
 20
0.0
 30
0.0
  0
VERTEX
  5
1C56
  8
4
  6
DASHED1
 10
1250.3565063476581
 20
1794.9370040893559
 30
0.0
  0
VERTEX
  5
1C57
  8
4
  6
DASHED1
 10
1252.812255859377
 20
1789.275077819826
 30
0.0
  0
VERTEX
  5
1C58
  8
4
  6
DASHED1
 10
1254.156860351562
 20
1785.7731857299809
 30
0.0
  0
VERTEX
  5
1C59
  8
4
  6
DASHED1
 10
1253.7300720214821
 20
1784.316734313966
 30
0.0
  0
VERTEX
  5
1C5A
  8
4
  6
DASHED1
 10
1252.2888793945331
 20
1783.1547775268559
 30
0.0
  0
VERTEX
  5
1C5B
  8
4
  6
DASHED1
 10
1250.7509460449221
 20
1782.3857345581059
 30
0.0
  0
VERTEX
  5
1C5C
  8
4
  6
DASHED1
 10
1250.034545898437
 20
1782.1075668334961
 30
0.0
  0
VERTEX
  5
1C5D
  8
4
  6
DASHED1
 10
1249.197296142577
 20
1783.2200851440409
 30
0.0
  0
VERTEX
  5
1C5E
  8
4
  6
DASHED1
 10
1247.2005310058571
 20
1785.9038009643559
 30
0.0
  0
VERTEX
  5
1C5F
  8
4
  6
DASHED1
 10
1244.8174133300779
 20
1789.176811218261
 30
0.0
  0
VERTEX
  5
1C60
  8
4
  6
DASHED1
 10
1242.820800781247
 20
1792.0569076538061
 30
0.0
  0
VERTEX
  5
1C61
  8
4
  6
DASHED1
 10
1241.4760437011721
 20
1794.642509460451
 30
0.0
  0
VERTEX
  5
1C62
  8
4
  6
DASHED1
 10
1240.5664672851569
 20
1797.424491882326
 30
0.0
  0
VERTEX
  5
1C63
  8
4
  6
DASHED1
 10
1240.1396789550779
 20
1800.009941101076
 30
0.0
  0
VERTEX
  5
1C64
  8
4
  6
DASHED1
 10
1240.2443542480471
 20
1802.0064010620099
 30
0.0
  0
VERTEX
  5
1C65
  8
4
  6
DASHED1
 10
1240.1396789550779
 20
1800.009941101076
 30
0.0
  0
SEQEND
  5
1C66
  8
4
  6
DASHED1
  0
POLYLINE
  5
BEA
  8
4
  6
DASHED1
 66
     1
 10
0.0
 20
0.0
 30
0.0
  0
VERTEX
  5
1C67
  8
4
  6
DASHED1
 10
1246.9429626464821
 20
1802.530082702636
 30
0.0
  0
VERTEX
  5
1C68
  8
4
  6
DASHED1
 10
1247.9976501464821
 20
1800.2063217163111
 30
0.0
  0
VERTEX
  5
1C69
  8
4
  6
DASHED1
 10
1246.9429626464821
 20
1802.530082702636
 30
0.0
  0
SEQEND
  5
1C6A
  8
4
  6
DASHED1
  0
POLYLINE
  5
BEF
  8
4
  6
DASHED1
 66
     1
 10
0.0
 20
0.0
 30
0.0
  0
VERTEX
  5
1C6B
  8
4
  6
DASHED1
 10
1250.3565063476581
 20
1966.1712875366211
 30
0.0
  0
VERTEX
  5
1C6C
  8
4
  6
DASHED1
 10
1252.812255859377
 20
1971.833213806151
 30
0.0
  0
VERTEX
  5
1C6D
  8
4
  6
DASHED1
 10
1254.156860351562
 20
1975.335258483886
 30
0.0
  0
VERTEX
  5
1C6E
  8
4
  6
DASHED1
 10
1253.7300720214821
 20
1976.7918624877909
 30
0.0
  0
VERTEX
  5
1C6F
  8
4
  6
DASHED1
 10
1252.2888793945331
 20
1977.9536666870099
 30
0.0
  0
VERTEX
  5
1C70
  8
4
  6
DASHED1
 10
1250.7509460449221
 20
1978.722709655761
 30
0.0
  0
VERTEX
  5
1C71
  8
4
  6
DASHED1
 10
1250.034545898437
 20
1979.0007247924809
 30
0.0
  0
VERTEX
  5
1C72
  8
4
  6
DASHED1
 10
1249.197296142577
 20
1977.8882064819361
 30
0.0
  0
VERTEX
  5
1C73
  8
4
  6
DASHED1
 10
1247.2005310058571
 20
1975.2044906616211
 30
0.0
  0
VERTEX
  5
1C74
  8
4
  6
DASHED1
 10
1244.8174133300779
 20
1971.931480407716
 30
0.0
  0
VERTEX
  5
1C75
  8
4
  6
DASHED1
 10
1242.820800781247
 20
1969.0515365600561
 30
0.0
  0
VERTEX
  5
1C76
  8
4
  6
DASHED1
 10
1241.4760437011721
 20
1966.4659347534159
 30
0.0
  0
VERTEX
  5
1C77
  8
4
  6
DASHED1
 10
1240.5664672851569
 20
1963.6841049194311
 30
0.0
  0
VERTEX
  5
1C78
  8
4
  6
DASHED1
 10
1240.1396789550779
 20
1961.098350524901
 30
0.0
  0
VERTEX
  5
1C79
  8
4
  6
DASHED1
 10
1240.2443542480471
 20
1959.1020431518559
 30
0.0
  0
VERTEX
  5
1C7A
  8
4
  6
DASHED1
 10
1240.1396789550779
 20
1961.098350524901
 30
0.0
  0
SEQEND
  5
1C7B
  8
4
  6
DASHED1
  0
POLYLINE
  5
C01
  8
4
  6
DASHED1
 66
     1
 10
0.0
 20
0.0
 30
0.0
  0
VERTEX
  5
1C7C
  8
4
  6
DASHED1
 10
1246.9429626464821
 20
1958.5783615112309
 30
0.0
  0
VERTEX
  5
1C7D
  8
4
  6
DASHED1
 10
1247.9976501464821
 20
1960.901817321776
 30
0.0
  0
VERTEX
  5
1C7E
  8
4
  6
DASHED1
 10
1246.9429626464821
 20
1958.5783615112309
 30
0.0
  0
SEQEND
  5
1C7F
  8
4
  6
DASHED1
  0
POLYLINE
  5
C06
  8
4
  6
DASHED1
 66
     1
 10
0.0
 20
0.0
 30
0.0
  0
VERTEX
  5
1C80
  8
4
  6
DASHED1
 10
1103.181289672852
 20
1950.2000656127909
 30
0.0
  0
VERTEX
  5
1C81
  8
4
  6
DASHED1
 10
1101.6113128662121
 20
1938.5815658569361
 30
0.0
  0
VERTEX
  5
1C82
  8
4
  6
DASHED1
 10
1100.669311523437
 20
1920.090049743651
 30
0.0
  0
VERTEX
  5
1C83
  8
4
  6
DASHED1
 10
1100.2104034423819
 20
1900.420097351076
 30
0.0
  0
VERTEX
  5
1C84
  8
4
  6
DASHED1
 10
1100.0897064208971
 20
1885.266899108886
 30
0.0
  0
VERTEX
  5
1C85
  8
4
  6
DASHED1
 10
1100.5969848632819
 20
1868.714775085451
 30
0.0
  0
VERTEX
  5
1C86
  8
4
  6
DASHED1
 10
1101.8288269042971
 20
1845.927452087401
 30
0.0
  0
VERTEX
  5
1C87
  8
4
  6
DASHED1
 10
1103.3504333496071
 20
1824.2204513549809
 30
0.0
  0
VERTEX
  5
1C88
  8
4
  6
DASHED1
 10
1104.727310180662
 20
1810.908378601076
 30
0.0
  0
VERTEX
  5
1C89
  8
4
  6
DASHED1
 10
1107.561172485352
 20
1804.779991149901
 30
0.0
  0
VERTEX
  5
1C8A
  8
4
  6
DASHED1
 10
1112.713912963867
 20
1799.977134704591
 30
0.0
  0
VERTEX
  5
1C8B
  8
4
  6
DASHED1
 10
1118.639434814452
 20
1796.843437194826
 30
0.0
  0
VERTEX
  5
1C8C
  8
4
  6
DASHED1
 10
1123.7921752929669
 20
1795.722373962401
 30
0.0
  0
VERTEX
  5
1C8D
  8
4
  6
DASHED1
 10
1129.033493041992
 20
1795.5670394897461
 30
0.0
  0
VERTEX
  5
1C8E
  8
4
  6
DASHED1
 10
1135.1927032470719
 20
1795.2641525268559
 30
0.0
  0
VERTEX
  5
1C8F
  8
4
  6
DASHED1
 10
1140.675415039062
 20
1795.0596847534159
 30
0.0
  0
VERTEX
  5
1C90
  8
4
  6
DASHED1
 10
1143.8879241943371
 20
1795.1988449096659
 30
0.0
  0
VERTEX
  5
1C91
  8
4
  6
DASHED1
 10
1145.481933593747
 20
1795.8287277221659
 30
0.0
  0
VERTEX
  5
1C92
  8
4
  6
DASHED1
 10
1146.979660034177
 20
1796.704429626466
 30
0.0
  0
VERTEX
  5
1C93
  8
4
  6
DASHED1
 10
1148.090728759767
 20
1797.4817123413111
 30
0.0
  0
VERTEX
  5
1C94
  8
4
  6
DASHED1
 10
1148.5253753662121
 20
1797.817100524901
 30
0.0
  0
VERTEX
  5
1C95
  8
4
  6
DASHED1
 10
1148.090728759767
 20
1797.4817123413111
 30
0.0
  0
SEQEND
  5
1C96
  8
4
  6
DASHED1
  0
POLYLINE
  5
C1E
  8
4
  6
DASHED1
 66
     1
 10
0.0
 20
0.0
 30
0.0
  0
VERTEX
  5
1C97
  8
4
  6
DASHED1
 10
1126.9483032226569
 20
1965.8439865112309
 30
0.0
  0
VERTEX
  5
1C98
  8
4
  6
DASHED1
 10
1120.0968780517569
 20
1964.886802673341
 30
0.0
  0
VERTEX
  5
1C99
  8
4
  6
DASHED1
 10
1115.032714843747
 20
1963.291343688966
 30
0.0
  0
VERTEX
  5
1C9A
  8
4
  6
DASHED1
 10
1111.586822509767
 20
1961.319297790526
 30
0.0
  0
VERTEX
  5
1C9B
  8
4
  6
DASHED1
 10
1108.334106445312
 20
1958.9055099487309
 30
0.0
  0
VERTEX
  5
1C9C
  8
4
  6
DASHED1
 10
1105.467895507812
 20
1955.4118576049809
 30
0.0
  0
VERTEX
  5
1C9D
  8
4
  6
DASHED1
 10
1108.334106445312
 20
1958.9055099487309
 30
0.0
  0
SEQEND
  5
1C9E
  8
4
  6
DASHED1
  0
POLYLINE
  5
C27
  8
4
  6
DASHED1
 66
     1
 10
0.0
 20
0.0
 30
0.0
  0
VERTEX
  5
1C9F
  8
4
  6
DASHED1
 10
1119.026016235352
 20
1955.174736022951
 30
0.0
  0
VERTEX
  5
1CA0
  8
4
  6
DASHED1
 10
1124.742111206052
 20
1958.038505554201
 30
0.0
  0
VERTEX
  5
1CA1
  8
4
  6
DASHED1
 10
1128.429702758787
 20
1959.6258773803711
 30
0.0
  0
VERTEX
  5
1CA2
  8
4
  6
DASHED1
 10
1131.690353393552
 20
1960.5584945678711
 30
0.0
  0
VERTEX
  5
1CA3
  8
4
  6
DASHED1
 10
1136.3519897460919
 20
1961.5893783569361
 30
0.0
  0
VERTEX
  5
1CA4
  8
4
  6
DASHED1
 10
1140.5306091308571
 20
1962.423881530761
 30
0.0
  0
VERTEX
  5
1CA5
  8
4
  6
DASHED1
 10
1142.342208862302
 20
1962.767662048341
 30
0.0
  0
VERTEX
  5
1CA6
  8
4
  6
DASHED1
 10
1142.0522155761721
 20
1963.3403244018559
 30
0.0
  0
VERTEX
  5
1CA7
  8
4
  6
DASHED1
 10
1141.1826934814469
 20
1964.600395202636
 30
0.0
  0
VERTEX
  5
1CA8
  8
4
  6
DASHED1
 10
1139.733413696287
 20
1965.8604660034159
 30
0.0
  0
VERTEX
  5
1CA9
  8
4
  6
DASHED1
 10
1137.704605102537
 20
1966.433280944826
 30
0.0
  0
VERTEX
  5
1CAA
  8
4
  6
DASHED1
 10
1133.5099639892569
 20
1966.310600280761
 30
0.0
  0
VERTEX
  5
1CAB
  8
4
  6
DASHED1
 10
1137.704605102537
 20
1966.433280944826
 30
0.0
  0
SEQEND
  5
1CAC
  8
4
  6
DASHED1
  0
POLYLINE
  5
C36
  8
4
  6
DASHED1
 66
     1
 10
0.0
 20
0.0
 30
0.0
  0
VERTEX
  5
1CAD
  8
4
  6
DASHED1
 10
1108.374313354492
 20
1844.5121994018559
 30
0.0
  0
VERTEX
  5
1CAE
  8
4
  6
DASHED1
 10
1107.898315429687
 20
1858.7254562377909
 30
0.0
  0
VERTEX
  5
1CAF
  8
4
  6
DASHED1
 10
1107.367919921877
 20
1875.252250671386
 30
0.0
  0
VERTEX
  5
1CB0
  8
4
  6
DASHED1
 10
1106.8616333007819
 20
1892.1472396850561
 30
0.0
  0
VERTEX
  5
1CB1
  8
4
  6
DASHED1
 10
1106.4581146240221
 20
1907.464927673341
 30
0.0
  0
VERTEX
  5
1CB2
  8
4
  6
DASHED1
 10
1106.235641479492
 20
1919.260581970216
 30
0.0
  0
VERTEX
  5
1CB3
  8
4
  6
DASHED1
 10
1106.2730255126969
 20
1925.5882492065409
 30
0.0
  0
VERTEX
  5
1CB4
  8
4
  6
DASHED1
 10
1106.917022705077
 20
1931.6020431518559
 30
0.0
  0
VERTEX
  5
1CB5
  8
4
  6
DASHED1
 10
1107.947753906247
 20
1937.566856384276
 30
0.0
  0
VERTEX
  5
1CB6
  8
4
  6
DASHED1
 10
1109.171432495117
 20
1943.0406417846659
 30
0.0
  0
VERTEX
  5
1CB7
  8
4
  6
DASHED1
 10
1110.395187377927
 20
1947.581962585451
 30
0.0
  0
VERTEX
  5
1CB8
  8
4
  6
DASHED1
 10
1113.502944946287
 20
1951.5254440307599
 30
0.0
  0
VERTEX
  5
1CB9
  8
4
  6
DASHED1
 10
1110.395187377927
 20
1947.581962585451
 30
0.0
  0
SEQEND
  5
1CBA
  8
4
  6
DASHED1
  0
POLYLINE
  5
C45
  8
4
  6
DASHED1
 66
     1
 10
0.0
 20
0.0
 30
0.0
  0
VERTEX
  5
1CBB
  8
4
  6
DASHED1
 10
1124.7583618164069
 20
1801.9409408569361
 30
0.0
  0
VERTEX
  5
1CBC
  8
4
  6
DASHED1
 10
1119.259399414062
 20
1804.7638168334961
 30
0.0
  0
VERTEX
  5
1CBD
  8
4
  6
DASHED1
 10
1114.002212524412
 20
1808.813804626466
 30
0.0
  0
VERTEX
  5
1CBE
  8
4
  6
DASHED1
 10
1110.3710784912121
 20
1814.901298522951
 30
0.0
  0
VERTEX
  5
1CBF
  8
4
  6
DASHED1
 10
1108.9137878417971
 20
1822.166923522951
 30
0.0
  0
VERTEX
  5
1CC0
  8
4
  6
DASHED1
 10
1108.712524414062
 20
1828.2542648315409
 30
0.0
  0
VERTEX
  5
1CC1
  8
4
  6
DASHED1
 10
1108.849395751952
 20
1830.807212829591
 30
0.0
  0
VERTEX
  5
1CC2
  8
4
  6
DASHED1
 10
1108.717407226562
 20
1834.5575180053711
 30
0.0
  0
VERTEX
  5
1CC3
  8
4
  6
DASHED1
 10
1108.849395751952
 20
1830.807212829591
 30
0.0
  0
SEQEND
  5
1CC4
  8
4
  6
DASHED1
  0
POLYLINE
  5
C50
  8
4
  6
DASHED1
 66
     1
 10
0.0
 20
0.0
 30
0.0
  0
VERTEX
  5
1CC5
  8
4
  6
DASHED1
 10
1147.3016967773419
 20
1797.9887619018559
 30
0.0
  0
VERTEX
  5
1CC6
  8
4
  6
DASHED1
 10
1144.1455688476569
 20
1798.4062423706059
 30
0.0
  0
VERTEX
  5
1CC7
  8
4
  6
DASHED1
 10
1139.8301544189469
 20
1798.921684265136
 30
0.0
  0
VERTEX
  5
1CC8
  8
4
  6
DASHED1
 10
1135.128311157227
 20
1799.3882980346659
 30
0.0
  0
VERTEX
  5
1CC9
  8
4
  6
DASHED1
 10
1130.1605834960919
 20
1800.197929382326
 30
0.0
  0
VERTEX
  5
1CCA
  8
4
  6
DASHED1
 10
1135.128311157227
 20
1799.3882980346659
 30
0.0
  0
SEQEND
  5
1CCB
  8
4
  6
DASHED1
  0
POLYLINE
  5
C73
  8
4
  6
DASHED1
 66
     1
 10
0.0
 20
0.0
 30
0.0
  0
VERTEX
  5
1CCC
  8
4
  6
DASHED1
 10
1364.9408569335919
 20
1934.4908370971659
 30
0.0
  0
VERTEX
  5
1CCD
  8
4
  6
DASHED1
 10
1364.576171875002
 20
1936.324790954591
 30
0.0
  0
VERTEX
  5
1CCE
  8
4
  6
DASHED1
 10
1363.5823669433571
 20
1937.8230514526349
 30
0.0
  0
VERTEX
  5
1CCF
  8
4
  6
DASHED1
 10
1362.1083679199221
 20
1938.8330307006861
 30
0.0
  0
VERTEX
  5
1CD0
  8
4
  6
DASHED1
 10
1360.3034057617169
 20
1939.203208923341
 30
0.0
  0
VERTEX
  5
1CD1
  8
4
  6
DASHED1
 10
1362.1083679199221
 20
1938.8330307006861
 30
0.0
  0
SEQEND
  5
1CD2
  8
4
  6
DASHED1
  0
POLYLINE
  5
C7B
  8
4
  6
DASHED1
 66
     1
 10
0.0
 20
0.0
 30
0.0
  0
VERTEX
  5
1CD3
  8
4
  6
DASHED1
 10
1355.665802001952
 20
1826.617759704591
 30
0.0
  0
VERTEX
  5
1CD4
  8
4
  6
DASHED1
 10
1356.030181884767
 20
1824.783500671386
 30
0.0
  0
VERTEX
  5
1CD5
  8
4
  6
DASHED1
 10
1357.0239868164081
 20
1823.285240173341
 30
0.0
  0
VERTEX
  5
1CD6
  8
4
  6
DASHED1
 10
1358.4981384277321
 20
1822.2752609252909
 30
0.0
  0
VERTEX
  5
1CD7
  8
4
  6
DASHED1
 10
1360.3034057617169
 20
1821.9049301147461
 30
0.0
  0
VERTEX
  5
1CD8
  8
4
  6
DASHED1
 10
1362.1083679199221
 20
1822.2752609252909
 30
0.0
  0
VERTEX
  5
1CD9
  8
4
  6
DASHED1
 10
1363.5823669433571
 20
1823.285240173341
 30
0.0
  0
VERTEX
  5
1CDA
  8
4
  6
DASHED1
 10
1364.576171875002
 20
1824.783500671386
 30
0.0
  0
VERTEX
  5
1CDB
  8
4
  6
DASHED1
 10
1364.9408569335919
 20
1826.617759704591
 30
0.0
  0
VERTEX
  5
1CDC
  8
4
  6
DASHED1
 10
1364.576171875002
 20
1824.783500671386
 30
0.0
  0
SEQEND
  5
1CDD
  8
4
  6
DASHED1
  0
POLYLINE
  5
C87
  8
4
  6
DASHED1
 66
     1
 10
0.0
 20
0.0
 30
0.0
  0
VERTEX
  5
1CDE
  8
4
  6
DASHED1
 10
1358.4981384277321
 20
1938.8330307006861
 30
0.0
  0
VERTEX
  5
1CDF
  8
4
  6
DASHED1
 10
1357.0239868164081
 20
1937.8230514526349
 30
0.0
  0
VERTEX
  5
1CE0
  8
4
  6
DASHED1
 10
1356.030181884767
 20
1936.324790954591
 30
0.0
  0
VERTEX
  5
1CE1
  8
4
  6
DASHED1
 10
1355.665802001952
 20
1934.4908370971659
 30
0.0
  0
VERTEX
  5
1CE2
  8
4
  6
DASHED1
 10
1356.030181884767
 20
1936.324790954591
 30
0.0
  0
SEQEND
  5
1CE3
  8
4
  6
DASHED1
  0
POLYLINE
  5
C8E
  8
4
  6
DASHED1
 66
     1
 10
0.0
 20
0.0
 30
0.0
  0
VERTEX
  5
1CE4
  8
4
  6
DASHED1
 10
1414.9223937988279
 20
1934.4908370971659
 30
0.0
  0
VERTEX
  5
1CE5
  8
4
  6
DASHED1
 10
1414.557861328127
 20
1936.324790954591
 30
0.0
  0
VERTEX
  5
1CE6
  8
4
  6
DASHED1
 10
1413.5640563964821
 20
1937.8230514526349
 30
0.0
  0
VERTEX
  5
1CE7
  8
4
  6
DASHED1
 10
1412.0899047851581
 20
1938.8330307006861
 30
0.0
  0
VERTEX
  5
1CE8
  8
4
  6
DASHED1
 10
1410.284790039062
 20
1939.203208923341
 30
0.0
  0
VERTEX
  5
1CE9
  8
4
  6
DASHED1
 10
1412.0899047851581
 20
1938.8330307006861
 30
0.0
  0
SEQEND
  5
1CEA
  8
4
  6
DASHED1
  0
POLYLINE
  5
C96
  8
4
  6
DASHED1
 66
     1
 10
0.0
 20
0.0
 30
0.0
  0
VERTEX
  5
1CEB
  8
4
  6
DASHED1
 10
1405.647338867187
 20
1826.617759704591
 30
0.0
  0
VERTEX
  5
1CEC
  8
4
  6
DASHED1
 10
1406.0115661621071
 20
1824.783500671386
 30
0.0
  0
VERTEX
  5
1CED
  8
4
  6
DASHED1
 10
1407.0056762695319
 20
1823.285240173341
 30
0.0
  0
VERTEX
  5
1CEE
  8
4
  6
DASHED1
 10
1408.479522705077
 20
1822.2752609252909
 30
0.0
  0
VERTEX
  5
1CEF
  8
4
  6
DASHED1
 10
1410.284790039062
 20
1821.9049301147461
 30
0.0
  0
VERTEX
  5
1CF0
  8
4
  6
DASHED1
 10
1412.0899047851581
 20
1822.2752609252909
 30
0.0
  0
VERTEX
  5
1CF1
  8
4
  6
DASHED1
 10
1413.5640563964821
 20
1823.285240173341
 30
0.0
  0
VERTEX
  5
1CF2
  8
4
  6
DASHED1
 10
1414.557861328127
 20
1824.783500671386
 30
0.0
  0
VERTEX
  5
1CF3
  8
4
  6
DASHED1
 10
1414.9223937988279
 20
1826.617759704591
 30
0.0
  0
VERTEX
  5
1CF4
  8
4
  6
DASHED1
 10
1414.557861328127
 20
1824.783500671386
 30
0.0
  0
SEQEND
  5
1CF5
  8
4
  6
DASHED1
  0
POLYLINE
  5
CA2
  8
4
  6
DASHED1
 66
     1
 10
0.0
 20
0.0
 30
0.0
  0
VERTEX
  5
1CF6
  8
4
  6
DASHED1
 10
1408.479522705077
 20
1938.8330307006861
 30
0.0
  0
VERTEX
  5
1CF7
  8
4
  6
DASHED1
 10
1407.0056762695319
 20
1937.8230514526349
 30
0.0
  0
VERTEX
  5
1CF8
  8
4
  6
DASHED1
 10
1406.0115661621071
 20
1936.324790954591
 30
0.0
  0
VERTEX
  5
1CF9
  8
4
  6
DASHED1
 10
1405.647338867187
 20
1934.4908370971659
 30
0.0
  0
VERTEX
  5
1CFA
  8
4
  6
DASHED1
 10
1406.0115661621071
 20
1936.324790954591
 30
0.0
  0
SEQEND
  5
1CFB
  8
4
  6
DASHED1
  0
POLYLINE
  5
CA9
  8
4
  6
DASHED1
 66
     1
 10
0.0
 20
0.0
 30
0.0
  0
VERTEX
  5
1CFC
  8
4
  6
DASHED1
 10
1215.5111541748031
 20
1845.9930648803711
 30
0.0
  0
VERTEX
  5
1CFD
  8
4
  6
DASHED1
 10
1215.2276458740221
 20
1847.419761657716
 30
0.0
  0
VERTEX
  5
1CFE
  8
4
  6
DASHED1
 10
1214.4545593261721
 20
1848.584922790526
 30
0.0
  0
VERTEX
  5
1CFF
  8
4
  6
DASHED1
 10
1213.3080902099621
 20
1849.3705978393559
 30
0.0
  0
VERTEX
  5
1D00
  8
4
  6
DASHED1
 10
1211.9041290283219
 20
1849.6586837768559
 30
0.0
  0
VERTEX
  5
1D01
  8
4
  6
DASHED1
 10
1213.3080902099621
 20
1849.3705978393559
 30
0.0
  0
SEQEND
  5
1D02
  8
4
  6
DASHED1
  0
POLYLINE
  5
CB1
  8
4
  6
DASHED1
 66
     1
 10
0.0
 20
0.0
 30
0.0
  0
VERTEX
  5
1D03
  8
4
  6
DASHED1
 10
1208.297256469727
 20
1833.425468444826
 30
0.0
  0
VERTEX
  5
1D04
  8
4
  6
DASHED1
 10
1208.580688476562
 20
1831.9987716674809
 30
0.0
  0
VERTEX
  5
1D05
  8
4
  6
DASHED1
 10
1209.3536987304669
 20
1830.833457946776
 30
0.0
  0
VERTEX
  5
1D06
  8
4
  6
DASHED1
 10
1210.5000915527321
 20
1830.047782897951
 30
0.0
  0
VERTEX
  5
1D07
  8
4
  6
DASHED1
 10
1211.9041290283219
 20
1829.7600021362309
 30
0.0
  0
VERTEX
  5
1D08
  8
4
  6
DASHED1
 10
1213.3080902099621
 20
1830.047782897951
 30
0.0
  0
VERTEX
  5
1D09
  8
4
  6
DASHED1
 10
1214.4545593261721
 20
1830.833457946776
 30
0.0
  0
VERTEX
  5
1D0A
  8
4
  6
DASHED1
 10
1215.2276458740221
 20
1831.9987716674809
 30
0.0
  0
VERTEX
  5
1D0B
  8
4
  6
DASHED1
 10
1215.5111541748031
 20
1833.425468444826
 30
0.0
  0
VERTEX
  5
1D0C
  8
4
  6
DASHED1
 10
1215.2276458740221
 20
1831.9987716674809
 30
0.0
  0
SEQEND
  5
1D0D
  8
4
  6
DASHED1
  0
POLYLINE
  5
CBD
  8
4
  6
DASHED1
 66
     1
 10
0.0
 20
0.0
 30
0.0
  0
VERTEX
  5
1D0E
  8
4
  6
DASHED1
 10
1210.5000915527321
 20
1849.3705978393559
 30
0.0
  0
VERTEX
  5
1D0F
  8
4
  6
DASHED1
 10
1209.3536987304669
 20
1848.584922790526
 30
0.0
  0
VERTEX
  5
1D10
  8
4
  6
DASHED1
 10
1208.580688476562
 20
1847.419761657716
 30
0.0
  0
VERTEX
  5
1D11
  8
4
  6
DASHED1
 10
1208.297256469727
 20
1845.9930648803711
 30
0.0
  0
VERTEX
  5
1D12
  8
4
  6
DASHED1
 10
1208.580688476562
 20
1847.419761657716
 30
0.0
  0
SEQEND
  5
1D13
  8
4
  6
DASHED1
  0
POLYLINE
  5
CC4
  8
4
  6
DASHED1
 66
     1
 10
0.0
 20
0.0
 30
0.0
  0
VERTEX
  5
1D14
  8
4
  6
DASHED1
 10
1215.5111541748031
 20
1927.1592941284159
 30
0.0
  0
VERTEX
  5
1D15
  8
4
  6
DASHED1
 10
1215.2276458740221
 20
1928.586143493651
 30
0.0
  0
VERTEX
  5
1D16
  8
4
  6
DASHED1
 10
1214.4545593261721
 20
1929.751304626466
 30
0.0
  0
VERTEX
  5
1D17
  8
4
  6
DASHED1
 10
1213.3080902099621
 20
1930.5369796752909
 30
0.0
  0
VERTEX
  5
1D18
  8
4
  6
DASHED1
 10
1211.9041290283219
 20
1930.824760437011
 30
0.0
  0
VERTEX
  5
1D19
  8
4
  6
DASHED1
 10
1213.3080902099621
 20
1930.5369796752909
 30
0.0
  0
SEQEND
  5
1D1A
  8
4
  6
DASHED1
  0
POLYLINE
  5
CCC
  8
4
  6
DASHED1
 66
     1
 10
0.0
 20
0.0
 30
0.0
  0
VERTEX
  5
1D1B
  8
4
  6
DASHED1
 10
1208.297256469727
 20
1914.591850280761
 30
0.0
  0
VERTEX
  5
1D1C
  8
4
  6
DASHED1
 10
1208.580688476562
 20
1913.1648483276349
 30
0.0
  0
VERTEX
  5
1D1D
  8
4
  6
DASHED1
 10
1209.3536987304669
 20
1911.9995346069361
 30
0.0
  0
VERTEX
  5
1D1E
  8
4
  6
DASHED1
 10
1210.5000915527321
 20
1911.214164733886
 30
0.0
  0
VERTEX
  5
1D1F
  8
4
  6
DASHED1
 10
1211.9041290283219
 20
1910.926078796386
 30
0.0
  0
VERTEX
  5
1D20
  8
4
  6
DASHED1
 10
1213.3080902099621
 20
1911.214164733886
 30
0.0
  0
VERTEX
  5
1D21
  8
4
  6
DASHED1
 10
1214.4545593261721
 20
1911.9995346069361
 30
0.0
  0
VERTEX
  5
1D22
  8
4
  6
DASHED1
 10
1215.2276458740221
 20
1913.1648483276349
 30
0.0
  0
VERTEX
  5
1D23
  8
4
  6
DASHED1
 10
1215.5111541748031
 20
1914.591850280761
 30
0.0
  0
VERTEX
  5
1D24
  8
4
  6
DASHED1
 10
1215.2276458740221
 20
1913.1648483276349
 30
0.0
  0
SEQEND
  5
1D25
  8
4
  6
DASHED1
  0
POLYLINE
  5
CD8
  8
4
  6
DASHED1
 66
     1
 10
0.0
 20
0.0
 30
0.0
  0
VERTEX
  5
1D26
  8
4
  6
DASHED1
 10
1210.5000915527321
 20
1930.5369796752909
 30
0.0
  0
VERTEX
  5
1D27
  8
4
  6
DASHED1
 10
1209.3536987304669
 20
1929.751304626466
 30
0.0
  0
VERTEX
  5
1D28
  8
4
  6
DASHED1
 10
1208.580688476562
 20
1928.586143493651
 30
0.0
  0
VERTEX
  5
1D29
  8
4
  6
DASHED1
 10
1208.297256469727
 20
1927.1592941284159
 30
0.0
  0
VERTEX
  5
1D2A
  8
4
  6
DASHED1
 10
1208.580688476562
 20
1928.586143493651
 30
0.0
  0
SEQEND
  5
1D2B
  8
4
  6
DASHED1
  0
POLYLINE
  5
CE6
  8
4
  6
DASHED1
 66
     1
 10
0.0
 20
0.0
 30
0.0
  0
VERTEX
  5
1D2C
  8
4
  6
DASHED1
 10
1099.5744171142569
 20
1871.947196960451
 30
0.0
  0
VERTEX
  5
1D2D
  8
4
  6
DASHED1
 10
1103.467086791992
 20
1870.658744812011
 30
0.0
  0
VERTEX
  5
1D2E
  8
4
  6
DASHED1
 10
1105.983184814452
 20
1867.4524154663111
 30
0.0
  0
VERTEX
  5
1D2F
  8
4
  6
DASHED1
 10
1107.291397094727
 20
1863.3162155151349
 30
0.0
  0
VERTEX
  5
1D30
  8
4
  6
DASHED1
 10
1107.561172485352
 20
1859.237846374511
 30
0.0
  0
VERTEX
  5
1D31
  8
4
  6
DASHED1
 10
1106.8929138183571
 20
1855.397056579591
 30
0.0
  0
VERTEX
  5
1D32
  8
4
  6
DASHED1
 10
1105.306762695312
 20
1851.759819030761
 30
0.0
  0
VERTEX
  5
1D33
  8
4
  6
DASHED1
 10
1102.851242065427
 20
1848.9940109252909
 30
0.0
  0
VERTEX
  5
1D34
  8
4
  6
DASHED1
 10
1099.5744171142569
 20
1847.7685775756861
 30
0.0
  0
VERTEX
  5
1D35
  8
4
  6
DASHED1
 10
1102.851242065427
 20
1848.9940109252909
 30
0.0
  0
SEQEND
  5
1D36
  8
4
  6
DASHED1
  0
POLYLINE
  5
CF9
  8
4
  6
DASHED1
 66
     1
 10
0.0
 20
0.0
 30
0.0
  0
VERTEX
  5
1D37
  8
4
  6
DASHED1
 10
1099.5744171142569
 20
1915.934165954591
 30
0.0
  0
VERTEX
  5
1D38
  8
4
  6
DASHED1
 10
1103.467086791992
 20
1914.645713806151
 30
0.0
  0
VERTEX
  5
1D39
  8
4
  6
DASHED1
 10
1105.983184814452
 20
1911.439384460451
 30
0.0
  0
VERTEX
  5
1D3A
  8
4
  6
DASHED1
 10
1107.291397094727
 20
1907.303031921386
 30
0.0
  0
VERTEX
  5
1D3B
  8
4
  6
DASHED1
 10
1107.561172485352
 20
1903.2249679565409
 30
0.0
  0
VERTEX
  5
1D3C
  8
4
  6
DASHED1
 10
1106.8929138183571
 20
1899.3841781616211
 30
0.0
  0
VERTEX
  5
1D3D
  8
4
  6
DASHED1
 10
1105.306762695312
 20
1895.7464828491211
 30
0.0
  0
VERTEX
  5
1D3E
  8
4
  6
DASHED1
 10
1102.851242065427
 20
1892.981132507326
 30
0.0
  0
VERTEX
  5
1D3F
  8
4
  6
DASHED1
 10
1099.5744171142569
 20
1891.755546569826
 30
0.0
  0
VERTEX
  5
1D40
  8
4
  6
DASHED1
 10
1102.851242065427
 20
1892.981132507326
 30
0.0
  0
SEQEND
  5
1D41
  8
4
  6
DASHED1
  0
POLYLINE
  5
D05
  8
4
  6
DASHED1
 66
     1
 10
0.0
 20
0.0
 30
0.0
  0
VERTEX
  5
1D42
  8
4
  6
DASHED1
 10
1278.8899841308571
 20
1825.5707015991211
 30
0.0
  0
VERTEX
  5
1D43
  8
4
  6
DASHED1
 10
1291.354125976562
 20
1825.8711471557599
 30
0.0
  0
VERTEX
  5
1D44
  8
4
  6
DASHED1
 10
1318.1232299804669
 20
1826.012290954591
 30
0.0
  0
VERTEX
  5
1D45
  8
4
  6
DASHED1
 10
1354.275878906247
 20
1826.0307540893559
 30
0.0
  0
VERTEX
  5
1D46
  8
4
  6
DASHED1
 10
1394.8909606933571
 20
1825.963310241701
 30
0.0
  0
VERTEX
  5
1D47
  8
4
  6
DASHED1
 10
1435.047363281247
 20
1825.8465805053711
 30
0.0
  0
VERTEX
  5
1D48
  8
4
  6
DASHED1
 10
1469.8232116699221
 20
1825.7177963256861
 30
0.0
  0
VERTEX
  5
1D49
  8
4
  6
DASHED1
 10
1494.2976989746071
 20
1825.6134262084961
 30
0.0
  0
VERTEX
  5
1D4A
  8
4
  6
DASHED1
 10
1503.5494079589821
 20
1825.5707015991211
 30
0.0
  0
SEQEND
  5
1D4B
  8
4
  6
DASHED1
  0
POLYLINE
  5
D10
  8
4
  6
DASHED1
 66
     1
 10
0.0
 20
0.0
 30
0.0
  0
VERTEX
  5
1D4C
  8
4
  6
DASHED1
 10
1531.374267578127
 20
1796.246055603026
 30
0.0
  0
VERTEX
  5
1D4D
  8
4
  6
DASHED1
 10
1183.0489196777321
 20
1796.246055603026
 30
0.0
  0
VERTEX
  5
1D4E
  8
4
  6
DASHED1
 10
1167.0512237548819
 20
1796.679862976076
 30
0.0
  0
VERTEX
  5
1D4F
  8
4
  6
DASHED1
 10
1150.521987915037
 20
1797.751640319826
 30
0.0
  0
VERTEX
  5
1D50
  8
4
  6
DASHED1
 10
1136.6015472412121
 20
1799.1180648803711
 30
0.0
  0
VERTEX
  5
1D51
  8
4
  6
DASHED1
 10
1128.429702758787
 20
1800.435508728026
 30
0.0
  0
VERTEX
  5
1D52
  8
4
  6
DASHED1
 10
1123.3413543701181
 20
1801.9079818725611
 30
0.0
  0
VERTEX
  5
1D53
  8
4
  6
DASHED1
 10
1117.4800720214821
 20
1805.1483383178711
 30
0.0
  0
VERTEX
  5
1D54
  8
4
  6
DASHED1
 10
1112.198623657227
 20
1811.922935485841
 30
0.0
  0
VERTEX
  5
1D55
  8
4
  6
DASHED1
 10
1108.849395751952
 20
1823.9995040893559
 30
0.0
  0
VERTEX
  5
1D56
  8
4
  6
DASHED1
 10
1107.9366149902321
 20
1834.0942611694311
 30
0.0
  0
VERTEX
  5
1D57
  8
4
  6
DASHED1
 10
1107.150558471677
 20
1848.1041183471659
 30
0.0
  0
VERTEX
  5
1D58
  8
4
  6
DASHED1
 10
1106.521514892577
 20
1864.5927658081059
 30
0.0
  0
VERTEX
  5
1D59
  8
4
  6
DASHED1
 10
1106.079849243162
 20
1882.1252670288061
 30
0.0
  0
VERTEX
  5
1D5A
  8
4
  6
DASHED1
 10
1105.855239868162
 20
1899.2645492553711
 30
0.0
  0
VERTEX
  5
1D5B
  8
4
  6
DASHED1
 10
1105.8785095214821
 20
1914.5752182006861
 30
0.0
  0
VERTEX
  5
1D5C
  8
4
  6
DASHED1
 10
1106.1794128417971
 20
1926.621269226076
 30
0.0
  0
VERTEX
  5
1D5D
  8
4
  6
DASHED1
 10
1106.7883148193371
 20
1933.9666976928711
 30
0.0
  0
VERTEX
  5
1D5E
  8
4
  6
DASHED1
 10
1108.978179931642
 20
1943.0243148803711
 30
0.0
  0
VERTEX
  5
1D5F
  8
4
  6
DASHED1
 10
1113.8732757568371
 20
1951.443809509276
 30
0.0
  0
VERTEX
  5
1D60
  8
4
  6
DASHED1
 10
1123.5990753173819
 20
1958.1938400268559
 30
0.0
  0
VERTEX
  5
1D61
  8
4
  6
DASHED1
 10
1140.281051635742
 20
1962.243980407716
 30
0.0
  0
VERTEX
  5
1D62
  8
4
  6
DASHED1
 10
1159.6440734863279
 20
1963.986991882326
 30
0.0
  0
VERTEX
  5
1D63
  8
4
  6
DASHED1
 10
1175.7704772949221
 20
1964.7966232299809
 30
0.0
  0
VERTEX
  5
1D64
  8
4
  6
DASHED1
 10
1188.322280883787
 20
1965.1159896850561
 30
0.0
  0
VERTEX
  5
1D65
  8
4
  6
DASHED1
 10
1196.961196899412
 20
1965.385917663576
 30
0.0
  0
VERTEX
  5
1D66
  8
4
  6
DASHED1
 10
1202.018188476562
 20
1965.4719772338849
 30
0.0
  0
VERTEX
  5
1D67
  8
4
  6
DASHED1
 10
1213.3129730224621
 20
1965.536064147951
 30
0.0
  0
VERTEX
  5
1D68
  8
4
  6
DASHED1
 10
1229.957794189452
 20
1965.580162048341
 30
0.0
  0
VERTEX
  5
1D69
  8
4
  6
DASHED1
 10
1251.0649719238279
 20
1965.606864929201
 30
0.0
  0
VERTEX
  5
1D6A
  8
4
  6
DASHED1
 10
1275.746826171877
 20
1965.617851257326
 30
0.0
  0
VERTEX
  5
1D6B
  8
4
  6
DASHED1
 10
1303.115753173827
 20
1965.6157150268559
 30
0.0
  0
VERTEX
  5
1D6C
  8
4
  6
DASHED1
 10
1332.2841491699221
 20
1965.603202819826
 30
0.0
  0
VERTEX
  5
1D6D
  8
4
  6
DASHED1
 10
1362.364257812502
 20
1965.5822982788061
 30
0.0
  0
VERTEX
  5
1D6E
  8
4
  6
DASHED1
 10
1392.468627929687
 20
1965.555137634276
 30
0.0
  0
VERTEX
  5
1D6F
  8
4
  6
DASHED1
 10
1421.709350585937
 20
1965.524009704591
 30
0.0
  0
VERTEX
  5
1D70
  8
4
  6
DASHED1
 10
1449.198974609377
 20
1965.4912033081059
 30
0.0
  0
VERTEX
  5
1D71
  8
4
  6
DASHED1
 10
1474.050048828127
 20
1965.4594650268559
 30
0.0
  0
VERTEX
  5
1D72
  8
4
  6
DASHED1
 10
1523.8936462402321
 20
1965.391563415526
 30
0.0
  0
VERTEX
  5
1D73
  8
4
  6
DASHED1
 10
1529.313110351562
 20
1965.385917663576
 30
0.0
  0
VERTEX
  5
1D74
  8
4
  6
DASHED1
 10
1537.831176757812
 20
1965.0261154174809
 30
0.0
  0
VERTEX
  5
1D75
  8
4
  6
DASHED1
 10
1544.5137634277321
 20
1962.8984298706059
 30
0.0
  0
VERTEX
  5
1D76
  8
4
  6
DASHED1
 10
1548.8774719238279
 20
1957.433036804201
 30
0.0
  0
VERTEX
  5
1D77
  8
4
  6
DASHED1
 10
1550.4393615722679
 20
1947.058433532716
 30
0.0
  0
VERTEX
  5
1D78
  8
4
  6
DASHED1
 10
1550.4393615722679
 20
1814.5739974975611
 30
0.0
  0
VERTEX
  5
1D79
  8
4
  6
DASHED1
 10
1549.1994323730471
 20
1806.408256530761
 30
0.0
  0
VERTEX
  5
1D7A
  8
4
  6
DASHED1
 10
1545.5443420410179
 20
1800.6970443725611
 30
0.0
  0
VERTEX
  5
1D7B
  8
4
  6
DASHED1
 10
1539.5702209472679
 20
1797.3425521850561
 30
0.0
  0
VERTEX
  5
1D7C
  8
4
  6
DASHED1
 10
1531.374267578127
 20
1796.246055603026
 30
0.0
  0
SEQEND
  5
1D7D
  8
4
  6
DASHED1
  0
CIRCLE
  5
D43
  8
6
  6
CONTINUOUS
 10
976.73994445800724
 20
2405.5732955932608
 30
0.0
 40
17.5
  0
CIRCLE
  5
D44
  8
6
  6
CONTINUOUS
 10
1635.7399597167971
 20
2405.5732955932608
 30
0.0
 40
17.5
  0
CIRCLE
  5
D45
  8
6
  6
CONTINUOUS
 10
335.90654754638638
 20
2014.7400131225611
 30
0.0
 40
17.5
  0
CIRCLE
  5
D46
  8
6
  6
CONTINUOUS
 10
335.90654754638638
 20
637.74004364013604
 30
0.0
 40
17.5
  0
CIRCLE
  5
D47
  8
6
  6
CONTINUOUS
 10
335.90654754638638
 20
1056.7399826049809
 30
0.0
 40
17.5
  0
CIRCLE
  5
D48
  8
6
  6
CONTINUOUS
 10
335.90654754638638
 20
1475.739921569826
 30
0.0
 40
17.5
  0
TEXT
  5
1143
  8
6
 10
965.48289652168705
 20
2397.9874149784441
 30
0.0
 40
16.0
  1
X1
  0
TEXT
  5
1144
  8
6
 10
1622.3376457773161
 20
2395.5823432344941
 30
0.0
 40
16.0
  1
X2
  0
TEXT
  5
1146
  8
6
 10
325.75931362276691
 20
629.57751859810969
 30
0.0
 40
16.0
  1
Y1
  0
TEXT
  5
1147
  8
6
 10
322.48727805126589
 20
1048.5840908692981
 30
0.0
 40
16.0
  1
Y2
  0
TEXT
  5
1148
  8
6
 10
322.27076424914128
 20
1467.0963417883561
 30
0.0
 40
16.0
  1
Y3
  0
TEXT
  5
1149
  8
6
 10
322.82787505602221
 20
2005.2736617268779
 30
0.0
 40
16.0
  1
Y4
  0
LINE
  5
116F
  8
7
  6
CONTINUOUS
 62
     6
 10
15.73995971679677
 20
7.7400150299072301
 30
0.0
 11
15.73995971679677
 21
2747.7405014038059
 31
0.0
  0
LINE
  5
1170
  8
7
  6
CONTINUOUS
 62
     6
 10
15.73995971679677
 20
2747.7405014038059
 30
0.0
 11
3990.7398071289081
 21
2747.7405014038059
 31
0.0
  0
LINE
  5
1171
  8
4
  6
DASHED1
 10
1093.3910980224621
 20
1871.947196960451
 30
0.0
 11
1093.3910980224621
 21
1847.7685775756861
 31
0.0
  0
LINE
  5
1172
  8
4
  6
DASHED1
 10
1093.3910980224621
 20
1847.7685775756861
 30
0.0
 11
1099.5744171142569
 21
1847.7685775756861
 31
0.0
  0
LINE
  5
1173
  8
4
  6
DASHED1
 10
1099.5744171142569
 20
1847.7685775756861
 30
0.0
 11
1099.5744171142569
 21
1871.947196960451
 31
0.0
  0
LINE
  5
1174
  8
4
  6
DASHED1
 10
1099.5744171142569
 20
1871.947196960451
 30
0.0
 11
1099.5744171142569
 21
1847.7685775756861
 31
0.0
  0
LINE
  5
1175
  8
4
  6
DASHED1
 10
1093.3910980224621
 20
1871.947196960451
 30
0.0
 11
1099.5744171142569
 21
1871.947196960451
 31
0.0
  0
LINE
  5
1177
  8
4
  6
DASHED1
 10
1093.3910980224621
 20
1915.934165954591
 30
0.0
 11
1093.3910980224621
 21
1891.755546569826
 31
0.0
  0
LINE
  5
1178
  8
4
  6
DASHED1
 10
1093.3910980224621
 20
1915.934165954591
 30
0.0
 11
1099.5744171142569
 21
1915.934165954591
 31
0.0
  0
LINE
  5
1179
  8
4
  6
DASHED1
 10
1099.5744171142569
 20
1891.755546569826
 30
0.0
 11
1099.5744171142569
 21
1915.934165954591
 31
0.0
  0
LINE
  5
117A
  8
4
  6
DASHED1
 10
1099.5744171142569
 20
1915.934165954591
 30
0.0
 11
1099.5744171142569
 21
1891.755546569826
 31
0.0
  0
LINE
  5
117B
  8
4
  6
DASHED1
 10
1093.3910980224621
 20
1891.755546569826
 30
0.0
 11
1099.5744171142569
 21
1891.755546569826
 31
0.0
  0
LINE
  5
1191
  8
CENTERLINE
  6
CENTER
 10
976.73971557617176
 20
2330.037296508031
 30
0.0
 11
976.73971557617176
 21
437.74000549316401
 31
0.0
  0
LINE
  5
1195
  8
1
  6
CONTINUOUS
 10
986.73994445800724
 20
628.24007415771609
 30
0.0
 11
986.73994445800724
 21
647.24001312256098
 31
0.0
  0
LINE
  5
1196
  8
1
  6
CONTINUOUS
 10
1625.7398071289081
 20
647.24001312256098
 30
0.0
 11
1625.7398071289081
 21
628.24007415771609
 31
0.0
  0
LINE
  5
1197
  8
1
  6
CONTINUOUS
 10
1085.2399291992169
 20
1466.239952087401
 30
0.0
 11
1085.2399291992169
 21
1485.2398910522461
 31
0.0
  0
LINE
  5
1198
  8
1
  6
CONTINUOUS
 10
986.73994445800724
 20
1485.2398910522461
 30
0.0
 11
1085.2399291992169
 21
1485.2398910522461
 31
0.0
  0
LINE
  5
1199
  8
1
  6
CONTINUOUS
 10
1085.2399291992169
 20
1466.2398757934609
 30
0.0
 11
986.73994445800724
 21
1466.2398757934609
 31
0.0
  0
LINE
  5
11A7
  8
1
  6
CONTINUOUS
 10
1645.2399291992169
 20
2004.7400131225611
 30
0.0
 11
1645.2399291992169
 21
1485.740074157716
 31
0.0
  0
LINE
  5
11AA
  8
1
  6
CONTINUOUS
 10
1585.7398071289069
 20
1485.2398910522461
 30
0.0
 11
1546.7400207519529
 21
1485.2398910522461
 31
0.0
  0
LINE
  5
11AB
  8
1
  6
CONTINUOUS
 10
1546.740020751952
 20
1485.2398910522461
 30
0.0
 11
1546.7400207519529
 21
1466.2398757934609
 31
0.0
  0
LINE
  5
11AC
  8
1
  6
CONTINUOUS
 10
1546.7400207519529
 20
1466.2398757934609
 30
0.0
 11
1625.7398071289081
 21
1466.2398757934609
 31
0.0
  0
LINE
  5
11AD
  8
1
  6
CONTINUOUS
 10
1546.740020751952
 20
1485.2398910522461
 30
0.0
 11
1625.7398071289081
 21
1485.2398910522461
 31
0.0
  0
LINE
  5
11AE
  8
1
  6
CONTINUOUS
 10
1645.2399291992169
 20
647.74004364013604
 30
0.0
 11
1645.2399291992169
 21
1046.7399063110361
 31
0.0
  0
LINE
  5
16AE
  8
1
  6
CONTINUOUS
 10
1473.2399597167921
 20
1301.2399520874039
 30
0.0
 11
1486.740020751952
 21
1301.2399520874039
 31
0.0
  0
LINE
  5
16AF
  8
1
  6
CONTINUOUS
 10
1473.2399597167921
 20
1361.240104675293
 30
0.0
 11
1473.2399597167921
 21
1301.2399520874039
 31
0.0
  0
LINE
  5
16B0
  8
1
  6
CONTINUOUS
 10
1486.740020751952
 20
1301.2399520874039
 30
0.0
 11
1486.740020751952
 21
1361.240104675293
 31
0.0
  0
LINE
  5
16B2
  8
1
  6
CONTINUOUS
 10
1486.740020751952
 20
1231.2399520874039
 30
0.0
 11
1473.2399597167921
 21
1231.2399520874039
 31
0.0
  0
LINE
  5
16B3
  8
1
  6
CONTINUOUS
 10
1473.2399597167921
 20
1231.2399520874039
 30
0.0
 11
1473.2399597167921
 21
1171.239952087403
 31
0.0
  0
LINE
  5
16B4
  8
1
  6
CONTINUOUS
 10
1486.740020751952
 20
1171.239952087403
 30
0.0
 11
1486.740020751952
 21
1231.2399520874039
 31
0.0
  0
LINE
  5
16BE
  8
1
  6
CONTINUOUS
 10
1473.2399597167921
 20
1361.240104675293
 30
0.0
 11
1486.740020751952
 21
1361.240104675293
 31
0.0
  0
LINE
  5
16BF
  8
1
  6
CONTINUOUS
 10
1486.740020751952
 20
1171.239952087403
 30
0.0
 11
1473.2399597167921
 21
1171.239952087403
 31
0.0
  0
LINE
  5
16C9
  8
CENTERLINE
  6
CENTER
 10
400.91297571604071
 20
637.74004364013604
 30
0.0
 11
1835.7398071289069
 21
637.74004364013604
 31
0.0
  0
LINE
  5
18E7
  8
1
  6
CONTINUOUS
 10
1486.740020751952
 20
752.24001312255859
 30
0.0
 11
1473.2399597167921
 21
752.24001312255859
 31
0.0
  0
LINE
  5
18E8
  8
1
  6
CONTINUOUS
 10
1473.2399597167921
 20
942.24016571044831
 30
0.0
 11
1486.740020751952
 21
942.24016571044831
 31
0.0
  0
LINE
  5
18E9
  8
1
  6
CONTINUOUS
 10
1486.740020751952
 20
752.24001312255859
 30
0.0
 11
1486.740020751952
 21
812.24001312255848
 31
0.0
  0
LINE
  5
18EA
  8
1
  6
CONTINUOUS
 10
1473.2399597167921
 20
812.24001312255848
 30
0.0
 11
1473.2399597167921
 21
752.24001312255859
 31
0.0
  0
LINE
  5
18EB
  8
1
  6
CONTINUOUS
 10
1486.740020751952
 20
812.24001312255848
 30
0.0
 11
1473.2399597167921
 21
812.24001312255848
 31
0.0
  0
LINE
  5
18EC
  8
1
  6
CONTINUOUS
 10
1486.740020751952
 20
882.24001312255859
 30
0.0
 11
1486.740020751952
 21
942.24016571044831
 31
0.0
  0
LINE
  5
18ED
  8
1
  6
CONTINUOUS
 10
1473.2399597167921
 20
942.24016571044831
 30
0.0
 11
1473.2399597167921
 21
882.24001312255859
 31
0.0
  0
LINE
  5
18EE
  8
1
  6
CONTINUOUS
 10
1473.2399597167921
 20
882.24001312255859
 30
0.0
 11
1486.740020751952
 21
882.24001312255859
 31
0.0
  0
TEXT
  5
194F
  8
6
 10
2230.6278628489908
 20
2005.2736617268779
 30
0.0
 40
16.0
  1
Y4
  0
TEXT
  5
1950
  8
6
 10
2230.0707520421111
 20
1467.0963417883561
 30
0.0
 40
16.0
  1
Y3
  0
TEXT
  5
1951
  8
6
 10
2230.2872658442361
 20
1048.5840908692981
 30
0.0
 40
16.0
  1
Y2
  0
TEXT
  5
1952
  8
6
 10
2233.5593014157362
 20
629.57751859810969
 30
0.0
 40
16.0
  1
Y1
  0
CIRCLE
  5
1953
  8
6
  6
CONTINUOUS
 10
2243.7065353393559
 20
1475.739921569826
 30
0.0
 40
17.5
  0
CIRCLE
  5
1954
  8
6
  6
CONTINUOUS
 10
2243.7065353393559
 20
1056.7399826049809
 30
0.0
 40
17.5
  0
CIRCLE
  5
1955
  8
6
  6
CONTINUOUS
 10
2243.7065353393559
 20
637.74004364013581
 30
0.0
 40
17.5
  0
CIRCLE
  5
1956
  8
6
  6
CONTINUOUS
 10
2243.7065353393559
 20
2014.7400131225611
 30
0.0
 40
17.5
  0
LINE
  5
1957
  8
6
  6
CONTINUOUS
 10
2284.5398559570322
 20
1475.739921569826
 30
0.0
 11
2254.5398941040039
 21
1475.739921569826
 31
0.0
  0
LINE
  5
1958
  8
6
  6
CONTINUOUS
 10
2243.7065353393559
 20
1464.9066390991211
 30
0.0
 11
2243.7065353393559
 21
1451.573356628415
 31
0.0
  0
LINE
  5
1959
  8
6
  6
CONTINUOUS
 10
2219.5398941040039
 20
1475.739921569826
 30
0.0
 11
2232.8731765747079
 21
1475.739921569826
 31
0.0
  0
LINE
  5
195A
  8
6
  6
CONTINUOUS
 10
2243.7065353393559
 20
1499.9066390991211
 30
0.0
 11
2243.7065353393559
 21
1486.5733566284159
 31
0.0
  0
LINE
  5
195B
  8
6
  6
CONTINUOUS
 10
2284.5398559570322
 20
1056.7399826049809
 30
0.0
 11
2254.5398941040039
 21
1056.7399826049809
 31
0.0
  0
LINE
  5
195C
  8
6
  6
CONTINUOUS
 10
2243.7065353393559
 20
1045.9066238403309
 30
0.0
 11
2243.7065353393559
 21
1032.5732650756861
 31
0.0
  0
LINE
  5
195D
  8
6
  6
CONTINUOUS
 10
2219.5398941040039
 20
1056.7399826049809
 30
0.0
 11
2232.8731765747079
 21
1056.7399826049809
 31
0.0
  0
LINE
  5
195E
  8
6
  6
CONTINUOUS
 10
2243.7065353393559
 20
1080.906547546386
 30
0.0
 11
2243.7065353393559
 21
1067.5732650756861
 31
0.0
  0
LINE
  5
195F
  8
6
  6
CONTINUOUS
 10
2284.5398559570322
 20
637.74004364013581
 30
0.0
 11
2254.5398941040039
 21
637.74004364013581
 31
0.0
  0
LINE
  5
1960
  8
6
  6
CONTINUOUS
 10
2243.7065353393559
 20
626.90668487548601
 30
0.0
 11
2243.7065353393559
 21
613.57332611084075
 31
0.0
  0
LINE
  5
1961
  8
6
  6
CONTINUOUS
 10
2219.5398941040039
 20
637.74004364013581
 30
0.0
 11
2232.8731765747079
 21
637.74004364013581
 31
0.0
  0
LINE
  5
1962
  8
6
  6
CONTINUOUS
 10
2243.7065353393559
 20
661.90668487548601
 30
0.0
 11
2243.7065353393559
 21
648.57332611084075
 31
0.0
  0
LINE
  5
1963
  8
6
  6
CONTINUOUS
 10
2284.5398559570322
 20
2014.7400131225611
 30
0.0
 11
2254.5398941040039
 21
2014.7400131225611
 31
0.0
  0
LINE
  5
1964
  8
6
  6
CONTINUOUS
 10
2243.7065353393559
 20
2003.9067306518559
 30
0.0
 11
2243.7065353393559
 21
1990.573448181151
 31
0.0
  0
LINE
  5
1965
  8
6
  6
CONTINUOUS
 10
2219.5398941040039
 20
2014.7400131225611
 30
0.0
 11
2232.8731765747079
 21
2014.7400131225611
 31
0.0
  0
LINE
  5
1966
  8
6
  6
CONTINUOUS
 10
2243.7065353393559
 20
2038.906578063966
 30
0.0
 11
2243.7065353393559
 21
2025.573295593261
 31
0.0
  0
TEXT
  5
1967
  8
6
 10
3481.3377373300509
 20
2395.5823432344941
 30
0.0
 40
16.0
  1
X2
  0
TEXT
  5
1968
  8
6
 10
2824.4829880744219
 20
2397.9874149784441
 30
0.0
 40
16.0
  1
X1
  0
CIRCLE
  5
1969
  8
6
  6
CONTINUOUS
 10
3494.7400512695331
 20
2405.5732955932608
 30
0.0
 40
17.5
  0
CIRCLE
  5
196A
  8
6
  6
CONTINUOUS
 10
2835.7400360107431
 20
2405.5732955932608
 30
0.0
 40
17.5
  0
LINE
  5
196B
  8
6
  6
CONTINUOUS
 10
3494.7400512695331
 20
2364.7400131225609
 30
0.0
 11
3494.7400512695331
 21
2394.7398605346671
 31
0.0
  0
LINE
  5
196C
  8
6
  6
CONTINUOUS
 10
3483.906616210938
 20
2405.5732955932608
 30
0.0
 11
3470.573333740233
 21
2405.5732955932608
 31
0.0
  0
LINE
  5
196D
  8
6
  6
CONTINUOUS
 10
3494.7400512695331
 20
2429.740165710451
 30
0.0
 11
3494.7400512695331
 21
2416.4067306518568
 31
0.0
  0
LINE
  5
196E
  8
6
  6
CONTINUOUS
 10
3518.906616210938
 20
2405.5732955932608
 30
0.0
 11
3505.5733337402321
 21
2405.5732955932608
 31
0.0
  0
LINE
  5
196F
  8
6
  6
CONTINUOUS
 10
2835.7400360107431
 20
2364.7400131225609
 30
0.0
 11
2835.7400360107431
 21
2394.7398605346671
 31
0.0
  0
LINE
  5
1970
  8
6
  6
CONTINUOUS
 10
2824.9066772460928
 20
2405.5732955932608
 30
0.0
 11
2811.573318481448
 21
2405.5732955932608
 31
0.0
  0
LINE
  5
1971
  8
6
  6
CONTINUOUS
 10
2835.7400360107431
 20
2429.740165710451
 30
0.0
 11
2835.7400360107431
 21
2416.4067306518568
 31
0.0
  0
LINE
  5
1972
  8
6
  6
CONTINUOUS
 10
2859.906600952148
 20
2405.5732955932608
 30
0.0
 11
2846.573318481448
 21
2405.5732955932608
 31
0.0
  0
INSERT
  5
19F9
  8
2
  6
CONTINUOUS
  2
CAR1
 10
0.0
 20
0.0
 30
0.0
  0
INSERT
  5
1A6D
  8
2
  6
CONTINUOUS
  2
CAR2
 10
0.0
 20
0.0
 30
0.0
  0
INSERT
  5
1B0A
  8
2
  6
CONTINUOUS
  2
CAR3
 10
0.0
 20
0.0
 30
0.0
  0
VIEWPORT
  5
1976
 67
     1
  8
0
  6
CONTINUOUS
 10
204.0995788574219
 20
142.63157558441159
 30
0.0
 40
1186.148701291497
 41
628.47453674316421
 68
     1
 69
     1
1001
ACAD
1000
MVIEW
1002
{
1070
    16
1010
0.0
1020
0.0
1030
0.0
1010
0.0
1020
0.0
1030
1.0
1040
0.0
1040
628.47453674316421
1040
204.0995788574219
1040
142.63157558441159
1040
50.0
1040
0.0
1040
0.0
1070
     0
1070
   100
1070
     1
1070
     1
1070
     0
1070
     0
1070
     0
1070
     0
1040
0.0
1040
0.0
1040
0.0
1040
10.0
1040
10.0
1040
10.0
1040
10.0
1070
     0
1002
{
1002
}
1002
}
  0
ENDSEC
  0
EOF
