  0
SECTION
  2
HEADER
  9
$ACADVER
  1
AC1018
  9
$ACADMAINTVER
 70
     0
  9
$DWGCODEPAGE
  3
ANSI_932
  9
$INSBASE
 10
0.0
 20
0.0
 30
0.0
  9
$EXTMIN
 10
45831.78051238856
 20
88498.16973984486
 30
-0.0015258207003583
  9
$EXTMAX
 10
379480.4620519052
 20
279266.8311151988
 30
0.0000000349246037
  9
$LIMMIN
 10
0.0
 20
0.0
  9
$LIMMAX
 10
420500.0
 20
297000.0
  9
$ORTHOMODE
 70
     1
  9
$REGENMODE
 70
     1
  9
$FILLMODE
 70
     1
  9
$QTEXTMODE
 70
     0
  9
$MIRRTEXT
 70
     0
  9
$LTSCALE
 40
500.0
  9
$ATTMODE
 70
     1
  9
$TEXTSIZE
 40
0.2
  9
$TRACEWID
 40
0.05
  9
$TEXTSTYLE
  7
STANDARD
  9
$CLAYER
  8
2
  9
$CELTYPE
  6
CONTINUOUS
  9
$CECOLOR
 62
   256
  9
$CELTSCALE
 40
1.0
  9
$DISPSILH
 70
     0
  9
$DIMSCALE
 40
1.0
  9
$DIMASZ
 40
0.18
  9
$DIMEXO
 40
0.0625
  9
$DIMDLI
 40
0.38
  9
$DIMRND
 40
0.0
  9
$DIMDLE
 40
0.0
  9
$DIMEXE
 40
0.18
  9
$DIMTP
 40
0.0
  9
$DIMTM
 40
0.0
  9
$DIMTXT
 40
0.18
  9
$DIMCEN
 40
0.09
  9
$DIMTSZ
 40
0.0
  9
$DIMTOL
 70
     0
  9
$DIMLIM
 70
     0
  9
$DIMTIH
 70
     1
  9
$DIMTOH
 70
     1
  9
$DIMSE1
 70
     0
  9
$DIMSE2
 70
     0
  9
$DIMTAD
 70
     0
  9
$DIMZIN
 70
     0
  9
$DIMBLK
  1

  9
$DIMASO
 70
     1
  9
$DIMSHO
 70
     1
  9
$DIMPOST
  1

  9
$DIMAPOST
  1

  9
$DIMALT
 70
     0
  9
$DIMALTD
 70
     2
  9
$DIMALTF
 40
25.4
  9
$DIMLFAC
 40
1.0
  9
$DIMTOFL
 70
     0
  9
$DIMTVP
 40
0.0
  9
$DIMTIX
 70
     0
  9
$DIMSOXD
 70
     0
  9
$DIMSAH
 70
     0
  9
$DIMBLK1
  1

  9
$DIMBLK2
  1

  9
$DIMSTYLE
  2
Standard
  9
$DIMCLRD
 70
     0
  9
$DIMCLRE
 70
     0
  9
$DIMCLRT
 70
     0
  9
$DIMTFAC
 40
1.0
  9
$DIMGAP
 40
0.09
  9
$DIMJUST
 70
     0
  9
$DIMSD1
 70
     0
  9
$DIMSD2
 70
     0
  9
$DIMTOLJ
 70
     1
  9
$DIMTZIN
 70
     0
  9
$DIMALTZ
 70
     0
  9
$DIMALTTZ
 70
     0
  9
$DIMUPT
 70
     0
  9
$DIMDEC
 70
     4
  9
$DIMTDEC
 70
     4
  9
$DIMALTU
 70
     2
  9
$DIMALTTD
 70
     2
  9
$DIMTXSTY
  7
STANDARD
  9
$DIMAUNIT
 70
     0
  9
$DIMADEC
 70
     0
  9
$DIMALTRND
 40
0.0
  9
$DIMAZIN
 70
     0
  9
$DIMDSEP
 70
    46
  9
$DIMATFIT
 70
     3
  9
$DIMFRAC
 70
     0
  9
$DIMLDRBLK
  1

  9
$DIMLUNIT
 70
     2
  9
$DIMLWD
 70
    -2
  9
$DIMLWE
 70
    -2
  9
$DIMTMOVE
 70
     0
  9
$LUNITS
 70
     2
  9
$LUPREC
 70
     4
  9
$SKETCHINC
 40
0.1
  9
$FILLETRAD
 40
0.0
  9
$AUNITS
 70
     0
  9
$AUPREC
 70
     0
  9
$MENU
  1
.
  9
$ELEVATION
 40
0.0
  9
$PELEVATION
 40
0.0
  9
$THICKNESS
 40
0.0
  9
$LIMCHECK
 70
     0
  9
$CHAMFERA
 40
0.0
  9
$CHAMFERB
 40
0.0
  9
$CHAMFERC
 40
0.0
  9
$CHAMFERD
 40
0.0
  9
$SKPOLY
 70
     0
  9
$TDCREATE
 40
2455071.085256077
  9
$TDUCREATE
 40
2455070.710256077
  9
$TDUPDATE
 40
2455071.110243415
  9
$TDUUPDATE
 40
2455070.735243415
  9
$TDINDWG
 40
0.0249875116
  9
$TDUSRTIMER
 40
0.0249875116
  9
$USRTIMER
 70
     1
  9
$ANGBASE
 50
0.0
  9
$ANGDIR
 70
     0
  9
$PDMODE
 70
     0
  9
$PDSIZE
 40
0.0
  9
$PLINEWID
 40
0.0
  9
$SPLFRAME
 70
     0
  9
$SPLINETYPE
 70
     6
  9
$SPLINESEGS
 70
     8
  9
$HANDSEED
  5
199
  9
$SURFTAB1
 70
     6
  9
$SURFTAB2
 70
     6
  9
$SURFTYPE
 70
     6
  9
$SURFU
 70
     6
  9
$SURFV
 70
     6
  9
$UCSBASE
  2

  9
$UCSNAME
  2

  9
$UCSORG
 10
0.0
 20
0.0
 30
0.0
  9
$UCSXDIR
 10
1.0
 20
0.0
 30
0.0
  9
$UCSYDIR
 10
0.0
 20
1.0
 30
0.0
  9
$UCSORTHOREF
  2

  9
$UCSORTHOVIEW
 70
     0
  9
$UCSORGTOP
 10
0.0
 20
0.0
 30
0.0
  9
$UCSORGBOTTOM
 10
0.0
 20
0.0
 30
0.0
  9
$UCSORGLEFT
 10
0.0
 20
0.0
 30
0.0
  9
$UCSORGRIGHT
 10
0.0
 20
0.0
 30
0.0
  9
$UCSORGFRONT
 10
0.0
 20
0.0
 30
0.0
  9
$UCSORGBACK
 10
0.0
 20
0.0
 30
0.0
  9
$PUCSBASE
  2

  9
$PUCSNAME
  2

  9
$PUCSORG
 10
0.0
 20
0.0
 30
0.0
  9
$PUCSXDIR
 10
1.0
 20
0.0
 30
0.0
  9
$PUCSYDIR
 10
0.0
 20
1.0
 30
0.0
  9
$PUCSORTHOREF
  2

  9
$PUCSORTHOVIEW
 70
     0
  9
$PUCSORGTOP
 10
0.0
 20
0.0
 30
0.0
  9
$PUCSORGBOTTOM
 10
0.0
 20
0.0
 30
0.0
  9
$PUCSORGLEFT
 10
0.0
 20
0.0
 30
0.0
  9
$PUCSORGRIGHT
 10
0.0
 20
0.0
 30
0.0
  9
$PUCSORGFRONT
 10
0.0
 20
0.0
 30
0.0
  9
$PUCSORGBACK
 10
0.0
 20
0.0
 30
0.0
  9
$USERI1
 70
     0
  9
$USERI2
 70
     0
  9
$USERI3
 70
     0
  9
$USERI4
 70
     0
  9
$USERI5
 70
     0
  9
$USERR1
 40
0.0
  9
$USERR2
 40
0.0
  9
$USERR3
 40
0.0
  9
$USERR4
 40
0.0
  9
$USERR5
 40
0.0
  9
$WORLDVIEW
 70
     1
  9
$SHADEDGE
 70
     3
  9
$SHADEDIF
 70
    70
  9
$TILEMODE
 70
     1
  9
$MAXACTVP
 70
    64
  9
$PINSBASE
 10
0.0
 20
0.0
 30
0.0
  9
$PLIMCHECK
 70
     0
  9
$PEXTMIN
 10
1.674328876274785
 20
2.087594723052575
 30
0.0
  9
$PEXTMAX
 10
406.0704517562703
 20
283.1755564457706
 30
0.0
  9
$PLIMMIN
 10
-5.873748779296875
 20
-5.873749732971191
  9
$PLIMMAX
 10
414.0729064941406
 20
291.1369009017944
  9
$UNITMODE
 70
     0
  9
$VISRETAIN
 70
     1
  9
$PLINEGEN
 70
     0
  9
$PSLTSCALE
 70
     1
  9
$TREEDEPTH
 70
  3020
  9
$CMLSTYLE
  2
Standard
  9
$CMLJUST
 70
     0
  9
$CMLSCALE
 40
1.0
  9
$PROXYGRAPHICS
 70
     1
  9
$MEASUREMENT
 70
     0
  9
$CELWEIGHT
370
    -1
  9
$ENDCAPS
280
     0
  9
$JOINSTYLE
280
     0
  9
$LWDISPLAY
290
     0
  9
$INSUNITS
 70
     0
  9
$HYPERLINKBASE
  1

  9
$STYLESHEET
  1

  9
$XEDIT
290
     1
  9
$CEPSNTYPE
380
     0
  9
$PSTYLEMODE
290
     1
  9
$FINGERPRINTGUID
  2
{C5C5EE8A-571A-43BD-9C9F-E51E3630C50C}
  9
$VERSIONGUID
  2
{C99F202A-5275-4355-B3B9-4013F0F3AC2D}
  9
$EXTNAMES
290
     1
  9
$PSVPSCALE
 40
0.0
  9
$OLESTARTUP
290
     0
  9
$SORTENTS
280
   127
  9
$INDEXCTL
280
     0
  9
$HIDETEXT
280
     0
  9
$XCLIPFRAME
290
     0
  9
$HALOGAP
280
     0
  9
$OBSCOLOR
 70
   257
  9
$OBSLTYPE
280
     0
  9
$INTERSECTIONDISPLAY
280
     0
  9
$INTERSECTIONCOLOR
 70
   257
  9
$DIMASSOC
280
     1
  9
$PROJECTNAME
  1

  0
ENDSEC
  0
SECTION
  2
CLASSES
  0
CLASS
  1
ACDBDICTIONARYWDFLT
  2
AcDbDictionaryWithDefault
  3
ObjectDBX Classes
 90
        0
 91
        1
280
     0
281
     0
  0
ENDSEC
  0
SECTION
  2
TABLES
  0
TABLE
  2
VPORT
  5
8
330
0
100
AcDbSymbolTable
 70
     7
  0
VPORT
  5
198
330
8
100
AcDbSymbolTableRecord
100
AcDbViewportTableRecord
  2
*Active
 70
     0
 10
0.0
 20
0.0
 11
1.0
 21
1.0
 12
210250.0
 22
148500.0
 13
0.0
 23
0.0
 14
1.0
 24
1.0
 15
0.0
 25
0.0
 16
0.0
 26
0.0
 36
1.0
 17
0.0
 27
0.0
 37
0.0
 40
299575.1445086705
 41
1.732272069464544
 42
50.0
 43
0.0
 44
0.0
 50
0.0
 51
0.0
 71
     0
 72
   100
 73
     1
 74
     1
 75
     0
 76
     0
 77
     0
 78
     0
281
     0
 65
     1
110
0.0
120
0.0
130
0.0
111
1.0
121
0.0
131
0.0
112
0.0
122
1.0
132
0.0
 79
     0
146
0.0
  0
ENDTAB
  0
TABLE
  2
LTYPE
  5
5
330
0
100
AcDbSymbolTable
 70
    35
  0
LTYPE
  5
13
330
5
100
AcDbSymbolTableRecord
100
AcDbLinetypeTableRecord
  2
ByBlock
 70
     0
  3

 72
    65
 73
     0
 40
0.0
  0
LTYPE
  5
14
330
5
100
AcDbSymbolTableRecord
100
AcDbLinetypeTableRecord
  2
ByLayer
 70
     0
  3

 72
    65
 73
     0
 40
0.0
  0
LTYPE
  5
15
330
5
100
AcDbSymbolTableRecord
100
AcDbLinetypeTableRecord
  2
CONTINUOUS
 70
     0
  3
実線
 72
    65
 73
     0
 40
0.0
  0
LTYPE
  5
24
330
5
100
AcDbSymbolTableRecord
100
AcDbLinetypeTableRecord
  2
DASHED1
 70
     0
  3
--  --  --  --  --  --  --  --  
 72
    65
 73
     2
 40
2.5
 49
1.25
 74
     0
 49
-1.25
 74
     0
  0
LTYPE
  5
25
330
5
100
AcDbSymbolTableRecord
100
AcDbLinetypeTableRecord
  2
DASHED2
 70
     0
  3
----    ----    ----    ----    
 72
    65
 73
     2
 40
5.0
 49
2.5
 74
     0
 49
-2.5
 74
     0
  0
LTYPE
  5
26
330
5
100
AcDbSymbolTableRecord
100
AcDbLinetypeTableRecord
  2
DASHED3
 70
     0
  3
------  ------  ------  ------  
 72
    65
 73
     2
 40
5.0
 49
3.75
 74
     0
 49
-1.25
 74
     0
  0
LTYPE
  5
27
330
5
100
AcDbSymbolTableRecord
100
AcDbLinetypeTableRecord
  2
CENTER1
 70
     0
  3
----- - ----- - ----- - ----- - 
 72
    65
 73
     4
 40
10.0
 49
6.25
 74
     0
 49
-1.25
 74
     0
 49
1.25
 74
     0
 49
-1.25
 74
     0
  0
LTYPE
  5
28
330
5
100
AcDbSymbolTableRecord
100
AcDbLinetypeTableRecord
  2
CENTER2
 70
     0
  3
----------  --  ----------  --  
 72
    65
 73
     4
 40
20.0
 49
12.5
 74
     0
 49
-2.5
 74
     0
 49
2.5
 74
     0
 49
-2.5
 74
     0
  0
LTYPE
  5
29
330
5
100
AcDbSymbolTableRecord
100
AcDbLinetypeTableRecord
  2
PHANTOM1
 70
     0
  3
--- - - --- - - --- - - --- - - 
 72
    65
 73
     6
 40
10.0
 49
3.25
 74
     0
 49
-1.25
 74
     0
 49
1.25
 74
     0
 49
-1.25
 74
     0
 49
1.25
 74
     0
 49
-1.25
 74
     0
  0
LTYPE
  5
2A
330
5
100
AcDbSymbolTableRecord
100
AcDbLinetypeTableRecord
  2
PHANTOM2
 70
     0
  3
--------  -  -  --------  -  -  
 72
    65
 73
     6
 40
20.0
 49
10.0
 74
     0
 49
-2.5
 74
     0
 49
1.25
 74
     0
 49
-2.5
 74
     0
 49
1.25
 74
     0
 49
-2.5
 74
     0
  0
LTYPE
  5
2B
330
5
100
AcDbSymbolTableRecord
100
AcDbLinetypeTableRecord
  2
DOT
 70
     0
  3
-   -   -   -   -   -   -   -   
 72
    65
 73
     2
 40
2.5
 49
0.625
 74
     0
 49
-1.875
 74
     0
  0
LTYPE
  5
2C
330
5
100
AcDbSymbolTableRecord
100
AcDbLinetypeTableRecord
  2
DUMMY
 70
     0
  3
ダミー
 72
    65
 73
     0
 40
0.0
  0
LTYPE
  5
2D
330
5
100
AcDbSymbolTableRecord
100
AcDbLinetypeTableRecord
  2
RAND1
 70
     0
  3
ランダム線1
 72
    65
 73
     4
 40
10.0
 49
1.0
 74
     0
 49
-2.0
 74
     0
 49
3.0
 74
     0
 49
-4.0
 74
     0
  0
LTYPE
  5
2E
330
5
100
AcDbSymbolTableRecord
100
AcDbLinetypeTableRecord
  2
RAND2
 70
     0
  3
ランダム線2
 72
    65
 73
     4
 40
14.0
 49
2.0
 74
     0
 49
-3.0
 74
     0
 49
4.0
 74
     0
 49
-5.0
 74
     0
  0
LTYPE
  5
2F
330
5
100
AcDbSymbolTableRecord
100
AcDbLinetypeTableRecord
  2
RAND3
 70
     0
  3
ランダム線3
 72
    65
 73
     4
 40
18.0
 49
3.0
 74
     0
 49
-4.0
 74
     0
 49
5.0
 74
     0
 49
-6.0
 74
     0
  0
LTYPE
  5
30
330
5
100
AcDbSymbolTableRecord
100
AcDbLinetypeTableRecord
  2
RAND4
 70
     0
  3
ランダム線4
 72
    65
 73
     4
 40
22.0
 49
4.0
 74
     0
 49
-5.0
 74
     0
 49
6.0
 74
     0
 49
-7.0
 74
     0
  0
LTYPE
  5
31
330
5
100
AcDbSymbolTableRecord
100
AcDbLinetypeTableRecord
  2
RAND5
 70
     0
  3
ランダム線5
 72
    65
 73
     4
 40
26.0
 49
5.0
 74
     0
 49
-6.0
 74
     0
 49
7.0
 74
     0
 49
-8.0
 74
     0
  0
LTYPE
  5
32
330
5
100
AcDbSymbolTableRecord
100
AcDbLinetypeTableRecord
  2
LONG1
 70
     0
  3
----------  --  ----------  --  
 72
    65
 73
     4
 40
40.0
 49
32.5
 74
     0
 49
-2.5
 74
     0
 49
2.5
 74
     0
 49
-2.5
 74
     0
  0
LTYPE
  5
33
330
5
100
AcDbSymbolTableRecord
100
AcDbLinetypeTableRecord
  2
LONG2
 70
     0
  3
--------  -  -  --------  -  -  
 72
    65
 73
     6
 40
40.0
 49
30.0
 74
     0
 49
-2.5
 74
     0
 49
1.25
 74
     0
 49
-2.5
 74
     0
 49
1.25
 74
     0
 49
-2.5
 74
     0
  0
LTYPE
  5
34
330
5
100
AcDbSymbolTableRecord
100
AcDbLinetypeTableRecord
  2
LONG3
 70
     0
  3
+++++++++++++++..+++++++++++++++
 72
    65
 73
     2
 40
40.0
 49
37.5
 74
     0
 49
-2.5
 74
     0
  0
LTYPE
  5
35
330
5
100
AcDbSymbolTableRecord
100
AcDbLinetypeTableRecord
  2
LONG4
 70
     0
  3
+++++++++++++++..+++++++++++++++
 72
    65
 73
     2
 40
80.0
 49
75.0
 74
     0
 49
-5.0
 74
     0
  0
LTYPE
  5
36
330
5
100
AcDbSymbolTableRecord
100
AcDbLinetypeTableRecord
  2
LONG5
 70
     0
  3
----------  --  ----------  --  
 72
    65
 73
     4
 40
60.0
 49
37.5
 74
     0
 49
-7.5
 74
     0
 49
7.5
 74
     0
 49
-7.5
 74
     0
  0
LTYPE
  5
37
330
5
100
AcDbSymbolTableRecord
100
AcDbLinetypeTableRecord
  2
DASHED
 70
     0
  3
-------   -------------   ------
 72
    65
 73
     2
 40
7.5
 49
6.0
 74
     0
 49
-1.5
 74
     0
  0
LTYPE
  5
38
330
5
100
AcDbSymbolTableRecord
100
AcDbLinetypeTableRecord
  2
DASHED_SPACED
 70
     0
  3
----        --------        ----
 72
    65
 73
     2
 40
12.0
 49
6.0
 74
     0
 49
-6.0
 74
     0
  0
LTYPE
  5
39
330
5
100
AcDbSymbolTableRecord
100
AcDbLinetypeTableRecord
  2
LONG_DASHED_DOTTED
 70
     0
  3
------------- --- --------------
 72
    65
 73
     4
 40
15.25
 49
12.0
 74
     0
 49
-1.5
 74
     0
 49
0.25
 74
     0
 49
-1.5
 74
     0
  0
LTYPE
  5
3A
330
5
100
AcDbSymbolTableRecord
100
AcDbLinetypeTableRecord
  2
LONG_DASHED_DOUBLE-DOTTED
 70
     0
  3
----------- --- --- ------------
 72
    65
 73
     6
 40
17.0
 49
12.0
 74
     0
 49
-1.5
 74
     0
 49
0.25
 74
     0
 49
-1.5
 74
     0
 49
0.25
 74
     0
 49
-1.5
 74
     0
  0
LTYPE
  5
3B
330
5
100
AcDbSymbolTableRecord
100
AcDbLinetypeTableRecord
  2
LONG_DASHED_TRIPLICATE-DOTTED
 70
     0
  3
--------- --- --- --- ----------
 72
    65
 73
     8
 40
18.75
 49
12.0
 74
     0
 49
-1.5
 74
     0
 49
0.25
 74
     0
 49
-1.5
 74
     0
 49
0.25
 74
     0
 49
-1.5
 74
     0
 49
0.25
 74
     0
 49
-1.5
 74
     0
  0
LTYPE
  5
3C
330
5
100
AcDbSymbolTableRecord
100
AcDbLinetypeTableRecord
  2
DOTTED
 70
     0
  3
   -       -       -       -    
 72
    65
 73
     2
 40
1.75
 49
0.25
 74
     0
 49
-1.5
 74
     0
  0
LTYPE
  5
3D
330
5
100
AcDbSymbolTableRecord
100
AcDbLinetypeTableRecord
  2
CHAIN
 70
     0
  3
-------------- -- --------------
 72
    65
 73
     4
 40
18.5
 49
12.0
 74
     0
 49
-1.5
 74
     0
 49
3.5
 74
     0
 49
-1.5
 74
     0
  0
LTYPE
  5
3E
330
5
100
AcDbSymbolTableRecord
100
AcDbLinetypeTableRecord
  2
CHAIN_DOUBLE_DASH
 70
     0
  3
------------ -- -- -------------
 72
    65
 73
     6
 40
23.5
 49
12.0
 74
     0
 49
-1.5
 74
     0
 49
3.5
 74
     0
 49
-1.5
 74
     0
 49
3.5
 74
     0
 49
-1.5
 74
     0
  0
LTYPE
  5
3F
330
5
100
AcDbSymbolTableRecord
100
AcDbLinetypeTableRecord
  2
DASHED_DOTTED
 70
     0
  3
-----------     -     ----------
 72
    65
 73
     4
 40
9.25
 49
6.0
 74
     0
 49
-1.5
 74
     0
 49
0.25
 74
     0
 49
-1.5
 74
     0
  0
LTYPE
  5
40
330
5
100
AcDbSymbolTableRecord
100
AcDbLinetypeTableRecord
  2
DOUBLE-DASHED_DOTTED
 70
     0
  3
------   -----------   -   -----
 72
    65
 73
     6
 40
16.75
 49
6.0
 74
     0
 49
-1.5
 74
     0
 49
6.0
 74
     0
 49
-1.5
 74
     0
 49
0.25
 74
     0
 49
-1.5
 74
     0
  0
LTYPE
  5
41
330
5
100
AcDbSymbolTableRecord
100
AcDbLinetypeTableRecord
  2
DASHED_DOUBLE-DOTTED
 70
     0
  3
---------    -    -    ---------
 72
    65
 73
     6
 40
11.0
 49
6.0
 74
     0
 49
-1.5
 74
     0
 49
0.25
 74
     0
 49
-1.5
 74
     0
 49
0.25
 74
     0
 49
-1.5
 74
     0
  0
LTYPE
  5
42
330
5
100
AcDbSymbolTableRecord
100
AcDbLinetypeTableRecord
  2
DOUBLE-DASHED_DOUBLE-DOTTED
 70
     0
  3
-----   ---------   -   -   ----
 72
    65
 73
     8
 40
18.5
 49
6.0
 74
     0
 49
-1.5
 74
     0
 49
6.0
 74
     0
 49
-1.5
 74
     0
 49
0.25
 74
     0
 49
-1.5
 74
     0
 49
0.25
 74
     0
 49
-1.5
 74
     0
  0
LTYPE
  5
43
330
5
100
AcDbSymbolTableRecord
100
AcDbLinetypeTableRecord
  2
DASHED_TRIPLICATE-DOTTED
 70
     0
  3
-------    -    -    -    ------
 72
    65
 73
     8
 40
12.75
 49
6.0
 74
     0
 49
-1.5
 74
     0
 49
0.25
 74
     0
 49
-1.5
 74
     0
 49
0.25
 74
     0
 49
-1.5
 74
     0
 49
0.25
 74
     0
 49
-1.5
 74
     0
  0
LTYPE
  5
44
330
5
100
AcDbSymbolTableRecord
100
AcDbLinetypeTableRecord
  2
DOUBLE-DASHED_TRIPLICATE-DOTTED
 70
     0
  3
-----  ---------  -  -  -  -----
 72
    65
 73
    10
 40
20.25
 49
6.0
 74
     0
 49
-1.5
 74
     0
 49
6.0
 74
     0
 49
-1.5
 74
     0
 49
0.25
 74
     0
 49
-1.5
 74
     0
 49
0.25
 74
     0
 49
-1.5
 74
     0
 49
0.25
 74
     0
 49
-1.5
 74
     0
  0
LTYPE
  5
45
330
5
100
AcDbSymbolTableRecord
100
AcDbLinetypeTableRecord
  2
UNDEFINED
 70
     0
  3
--------------------------------
 72
    65
 73
     0
 40
0.0
  0
ENDTAB
  0
TABLE
  2
LAYER
  5
2
330
0
100
AcDbSymbolTable
 70
     5
  0
LAYER
  5
10
330
2
100
AcDbSymbolTableRecord
100
AcDbLayerTableRecord
  2
0
 70
     0
 62
     7
  6
CONTINUOUS
370
    -3
390
F
  0
LAYER
  5
47
330
2
100
AcDbSymbolTableRecord
100
AcDbLayerTableRecord
  2
1
 70
     0
 62
     4
  6
CONTINUOUS
370
    -3
390
F
  0
LAYER
  5
48
330
2
100
AcDbSymbolTableRecord
100
AcDbLayerTableRecord
  2
2
 70
     0
 62
     7
  6
CONTINUOUS
370
    -3
390
F
  0
LAYER
  5
49
330
2
100
AcDbSymbolTableRecord
100
AcDbLayerTableRecord
  2
3
 70
     0
 62
     1
  6
CONTINUOUS
370
    -3
390
F
  0
LAYER
  5
4A
330
2
100
AcDbSymbolTableRecord
100
AcDbLayerTableRecord
  2
文字
 70
     0
 62
     6
  6
CONTINUOUS
370
    -3
390
F
  0
ENDTAB
  0
TABLE
  2
STYLE
  5
3
330
0
100
AcDbSymbolTable
 70
     2
  0
STYLE
  5
11
330
3
100
AcDbSymbolTableRecord
100
AcDbTextStyleTableRecord
  2
STANDARD
 70
     0
 40
0.0
 41
1.0
 50
0.0
 71
     0
 42
0.2
  3
txt
  4
bigfont.shx
  0
STYLE
  5
46
330
3
100
AcDbSymbolTableRecord
100
AcDbTextStyleTableRecord
  2
TATEGAKI
 70
     4
 40
0.0
 41
1.0
 50
0.0
 71
     0
 42
1.0
  3
txt
  4
bigfont.shx
  0
ENDTAB
  0
TABLE
  2
VIEW
  5
6
330
0
100
AcDbSymbolTable
 70
     0
  0
ENDTAB
  0
TABLE
  2
UCS
  5
7
330
0
100
AcDbSymbolTable
 70
     0
  0
ENDTAB
  0
TABLE
  2
APPID
  5
9
330
0
100
AcDbSymbolTable
 70
     1
  0
APPID
  5
12
330
9
100
AcDbSymbolTableRecord
100
AcDbRegAppTableRecord
  2
ACAD
 70
     0
  0
ENDTAB
  0
TABLE
  2
DIMSTYLE
  5
A
330
0
100
AcDbSymbolTable
 70
     1
100
AcDbDimStyleTable
 71
     0
  0
DIMSTYLE
105
16A
330
A
100
AcDbSymbolTableRecord
100
AcDbDimStyleTableRecord
  2
Standard
 70
     0
340
11
  0
ENDTAB
  0
TABLE
  2
BLOCK_RECORD
  5
1
330
0
100
AcDbSymbolTable
 70
     1
  0
BLOCK_RECORD
  5
20
330
1
100
AcDbSymbolTableRecord
100
AcDbBlockTableRecord
  2
*Model_Space
340
23
  0
BLOCK_RECORD
  5
18B
330
1
100
AcDbSymbolTableRecord
100
AcDbBlockTableRecord
  2
*Paper_Space
340
18C
  0
BLOCK_RECORD
  5
1C
330
1
100
AcDbSymbolTableRecord
100
AcDbBlockTableRecord
  2
*Paper_Space0
340
1F
  0
ENDTAB
  0
ENDSEC
  0
SECTION
  2
BLOCKS
  0
BLOCK
  5
21
330
20
100
AcDbEntity
  8
0
100
AcDbBlockBegin
  2
*Model_Space
 70
     0
 10
0.0
 20
0.0
 30
0.0
  3
*Model_Space
  1

  0
ENDBLK
  5
22
330
20
100
AcDbEntity
  8
0
100
AcDbBlockEnd
  0
BLOCK
  5
18D
330
18B
100
AcDbEntity
 67
     1
  8
0
100
AcDbBlockBegin
  2
*Paper_Space
 70
     0
 10
0.0
 20
0.0
 30
0.0
  3
*Paper_Space
  1

  0
ENDBLK
  5
18E
330
18B
100
AcDbEntity
 67
     1
  8
0
100
AcDbBlockEnd
  0
BLOCK
  5
1D
330
1C
100
AcDbEntity
  8
0
100
AcDbBlockBegin
  2
*Paper_Space0
 70
     0
 10
0.0
 20
0.0
 30
0.0
  3
*Paper_Space0
  1

  0
VIEWPORT
  5
182
330
1C
100
AcDbEntity
  8
0
  6
Continuous
100
AcDbViewport
 10
403.4789733886718
 20
291.9729895591736
 30
0.0
 40
1037.780612293589
 41
599.0863852087472
 69
     1
 12
403.4789733886718
 22
291.9729895591736
 13
0.0
 23
0.0
 14
10.0
 24
10.0
 15
10.0
 25
10.0
 16
0.0
 26
0.0
 36
1.0
 17
0.0
 27
0.0
 37
0.0
 42
50.0
 43
0.0
 44
0.0
 45
599.0863852087472
 50
0.0
 51
0.0
 72
   100
 90
    32800
  1

281
     0
 71
     1
 74
     0
110
0.0
120
0.0
130
0.0
111
1.0
121
0.0
131
0.0
112
0.0
122
1.0
132
0.0
 79
     0
146
0.0
170
     0
  0
VIEWPORT
  5
186
330
1C
100
AcDbEntity
  8
2
  6
Continuous
100
AcDbViewport
 10
403.4789733886718
 20
291.5189541852668
 30
0.0
 40
800.4993503096711
 41
579.3491502727199
 69
     3
 12
212656.1212821469
 22
183882.5004275218
 13
0.0
 23
0.0
 14
1.0
 24
1.0
 15
0.0
 25
0.0
 16
0.0
 26
0.0
 36
1.0
 17
0.0
 27
0.0
 37
0.0
 42
50.0
 43
0.0
 44
0.0
 45
289674.57513636
 50
0.0
 51
0.0
 72
   100
 90
    32800
  1

281
     0
 71
     1
 74
     0
110
0.0
120
0.0
130
0.0
111
1.0
121
0.0
131
0.0
112
0.0
122
1.0
132
0.0
 79
     0
146
0.0
170
     0
  0
LINE
  5
187
330
1C
100
AcDbEntity
  8
2
  6
Continuous
 62
     3
100
AcDbLine
 10
363.7054530797491
 20
473.4457577169519
 30
0.0
 11
428.3307741541989
 21
473.4457577169519
 31
0.0
  0
MTEXT
  5
188
330
1C
100
AcDbEntity
  8
2
  6
Continuous
 62
     6
100
AcDbMText
 10
415.9692390099016
 20
470.0378410670598
 30
0.0
 40
2.0
 41
17.78088126951979
 71
     1
 72
     5
  1
{\fArial|b0|i0|c0|p32;V}：1/100
 73
     1
 44
1.0
  0
MTEXT
  5
18A
330
1C
100
AcDbEntity
  8
2
  6
Continuous
 62
     6
100
AcDbMText
 10
415.9692390099016
 20
472.4085938934352
 30
0.0
 40
2.0
 41
17.78088126951979
 71
     1
 72
     5
  1
{\fArial|b0|i0|c0|p32;H}：1/500
 73
     1
 44
1.0
  0
ENDBLK
  5
1E
330
1C
100
AcDbEntity
  8
0
100
AcDbBlockEnd
  0
ENDSEC
  0
SECTION
  2
ENTITIES
  0
LINE
  5
4E
330
20
100
AcDbEntity
  8
3
  6
Continuous
100
AcDbLine
 10
45832.52268316203
 20
120000.0011046421
 30
0.0
 11
379167.4982608515
 21
120000.0011046421
 31
0.0
  0
LINE
  5
4F
330
20
100
AcDbEntity
  8
3
  6
Continuous
100
AcDbLine
 10
45832.52268316203
 20
144000.0013255704
 30
0.0
 11
379167.4982608515
 21
144000.0013255704
 31
0.0
  0
LINE
  5
50
330
20
100
AcDbEntity
  8
3
  6
Continuous
100
AcDbLine
 10
45832.52268316203
 20
104000.0009573564
 30
0.0
 11
379167.4982608515
 21
104000.0009573564
 31
0.0
  0
LINE
  5
51
330
20
100
AcDbEntity
  8
3
  6
Continuous
100
AcDbLine
 10
379167.4982608515
 20
144500.0036526831
 30
0.0
 11
45832.52268316203
 21
144500.0036526831
 31
0.0
  0
LINE
  5
58
330
20
100
AcDbEntity
  8
3
  6
Continuous
100
AcDbLine
 10
45832.52268316203
 20
169999.9984682296
 30
0.0
 11
379167.4982608515
 21
169999.9984682296
 31
0.0
  0
LINE
  5
59
330
20
100
AcDbEntity
  8
3
  6
Continuous
100
AcDbLine
 10
65832.5166739092
 20
136000.0012519277
 30
0.0
 11
65832.5166739092
 21
128500.0035053975
 31
0.0
  0
LINE
  5
5A
330
20
100
AcDbEntity
  8
3
  6
Continuous
100
AcDbLine
 10
379167.4982608515
 20
128500.0035053975
 30
0.0
 11
45832.52268316203
 21
128500.0035053975
 31
0.0
  0
LINE
  5
5B
330
20
100
AcDbEntity
  8
3
  6
Continuous
100
AcDbLine
 10
45832.52268316203
 20
128500.0035053975
 30
0.0
 11
45832.52268316203
 21
136000.0012519277
 31
0.0
  0
LINE
  5
5C
330
20
100
AcDbEntity
  8
3
  6
Continuous
100
AcDbLine
 10
45832.52268316203
 20
136000.0012519277
 30
0.0
 11
379167.4982608515
 21
136000.0012519277
 31
0.0
  0
LINE
  5
5D
330
20
100
AcDbEntity
  8
3
  6
Continuous
100
AcDbLine
 10
379167.4982608515
 20
136000.0012519277
 30
0.0
 11
379167.4982608515
 21
128500.0035053975
 31
0.0
  0
LINE
  5
5E
330
20
100
AcDbEntity
  8
3
  6
Continuous
100
AcDbLine
 10
65832.5166739092
 20
128000.0011782848
 30
0.0
 11
65832.5166739092
 21
120500.0034317547
 31
0.0
  0
LINE
  5
5F
330
20
100
AcDbEntity
  8
3
  6
Continuous
100
AcDbLine
 10
379167.4982608515
 20
120500.0034317547
 30
0.0
 11
45832.52268316203
 21
120500.0034317547
 31
0.0
  0
LINE
  5
60
330
20
100
AcDbEntity
  8
3
  6
Continuous
100
AcDbLine
 10
45832.52268316203
 20
120500.0034317547
 30
0.0
 11
45832.52268316203
 21
128000.0011782848
 31
0.0
  0
LINE
  5
61
330
20
100
AcDbEntity
  8
3
  6
Continuous
100
AcDbLine
 10
45832.52268316203
 20
128000.0011782848
 30
0.0
 11
379167.4982608515
 21
128000.0011782848
 31
0.0
  0
LINE
  5
62
330
20
100
AcDbEntity
  8
3
  6
Continuous
100
AcDbLine
 10
379167.4982608515
 20
128000.0011782848
 30
0.0
 11
379167.4982608515
 21
120500.0034317547
 31
0.0
  0
LINE
  5
63
330
20
100
AcDbEntity
  8
3
  6
Continuous
100
AcDbLine
 10
65832.5166739092
 20
120000.0011046421
 30
0.0
 11
65832.5166739092
 21
112500.0033581119
 31
0.0
  0
LINE
  5
64
330
20
100
AcDbEntity
  8
3
  6
Continuous
100
AcDbLine
 10
379167.4982608515
 20
112500.0033581119
 30
0.0
 11
45832.52268316203
 21
112500.0033581119
 31
0.0
  0
LINE
  5
65
330
20
100
AcDbEntity
  8
3
  6
Continuous
100
AcDbLine
 10
45832.52268316203
 20
112500.0033581119
 30
0.0
 11
45832.52268316203
 21
120000.0011046421
 31
0.0
  0
LINE
  5
66
330
20
100
AcDbEntity
  8
3
  6
Continuous
100
AcDbLine
 10
379167.4982608515
 20
120000.0011046421
 30
0.0
 11
379167.4982608515
 21
112500.0033581119
 31
0.0
  0
LINE
  5
67
330
20
100
AcDbEntity
  8
3
  6
Continuous
100
AcDbLine
 10
65832.5166739092
 20
112000.0010309992
 30
0.0
 11
65832.5166739092
 21
104500.0032844691
 31
0.0
  0
LINE
  5
68
330
20
100
AcDbEntity
  8
3
  6
Continuous
100
AcDbLine
 10
379167.4982608515
 20
104500.0032844691
 30
0.0
 11
45832.52268316203
 21
104500.0032844691
 31
0.0
  0
LINE
  5
69
330
20
100
AcDbEntity
  8
3
  6
Continuous
100
AcDbLine
 10
45832.52268316203
 20
104500.0032844691
 30
0.0
 11
45832.52268316203
 21
112000.0010309992
 31
0.0
  0
LINE
  5
6A
330
20
100
AcDbEntity
  8
3
  6
Continuous
100
AcDbLine
 10
45832.52268316203
 20
112000.0010309992
 30
0.0
 11
379167.4982608515
 21
112000.0010309992
 31
0.0
  0
LINE
  5
6B
330
20
100
AcDbEntity
  8
3
  6
Continuous
100
AcDbLine
 10
65832.5166739092
 20
104000.0009573564
 30
0.0
 11
65832.5166739092
 21
96500.00321082627
 31
0.0
  0
LINE
  5
6C
330
20
100
AcDbEntity
  8
3
  6
Continuous
100
AcDbLine
 10
379167.4982608515
 20
96500.00321082627
 30
0.0
 11
45832.52268316203
 21
96500.00321082627
 31
0.0
  0
LINE
  5
6D
330
20
100
AcDbEntity
  8
3
  6
Continuous
100
AcDbLine
 10
45832.52268316203
 20
96500.00321082627
 30
0.0
 11
45832.52268316203
 21
104000.0009573564
 31
0.0
  0
LINE
  5
6E
330
20
100
AcDbEntity
  8
3
  6
Continuous
100
AcDbLine
 10
379167.4982608515
 20
104000.0009573564
 30
0.0
 11
379167.4982608515
 21
96500.00321082627
 31
0.0
  0
LINE
  5
6F
330
20
100
AcDbEntity
  8
3
  6
Continuous
100
AcDbLine
 10
65832.5166739092
 20
96000.00088371363
 30
0.0
 11
65832.5166739092
 21
88500.00313718346
 31
0.0
  0
LINE
  5
70
330
20
100
AcDbEntity
  8
3
  6
Continuous
100
AcDbLine
 10
379167.4982608515
 20
88500.00313718346
 30
0.0
 11
45832.52268316203
 21
88500.00313718346
 31
0.0
  0
LINE
  5
71
330
20
100
AcDbEntity
  8
3
  6
Continuous
100
AcDbLine
 10
45832.52268316203
 20
88500.00313718346
 30
0.0
 11
45832.52268316203
 21
96000.00088371363
 31
0.0
  0
LINE
  5
72
330
20
100
AcDbEntity
  8
3
  6
Continuous
100
AcDbLine
 10
45832.52268316203
 20
96000.00088371363
 30
0.0
 11
379167.4982608515
 21
96000.00088371363
 31
0.0
  0
LINE
  5
73
330
20
100
AcDbEntity
  8
3
  6
Continuous
100
AcDbLine
 10
379167.4982608515
 20
96000.00088371363
 30
0.0
 11
379167.4982608515
 21
88500.00313718346
 31
0.0
  0
LINE
  5
74
330
20
100
AcDbEntity
  8
2
  6
Continuous
 62
     1
100
AcDbLine
 10
70832.51517159598
 20
96000.00088371363
 30
0.0
 11
70832.51517159598
 21
96500.00321082627
 31
0.0
  0
LINE
  5
75
330
20
100
AcDbEntity
  8
2
  6
Continuous
 62
     1
100
AcDbLine
 10
70832.51517159598
 20
104000.0009573564
 30
0.0
 11
70832.51517159598
 21
104500.0032844691
 31
0.0
  0
LINE
  5
76
330
20
100
AcDbEntity
  8
2
  6
Continuous
 62
     1
100
AcDbLine
 10
70832.51517159598
 20
112000.0010309992
 30
0.0
 11
70832.51517159598
 21
112500.0033581119
 31
0.0
  0
LINE
  5
77
330
20
100
AcDbEntity
  8
2
  6
Continuous
 62
     1
100
AcDbLine
 10
70832.51517159598
 20
120000.0011046421
 30
0.0
 11
70832.51517159598
 21
120500.0034317547
 31
0.0
  0
LINE
  5
78
330
20
100
AcDbEntity
  8
2
  6
Continuous
 62
     1
100
AcDbLine
 10
70832.51517159598
 20
128000.0011782848
 30
0.0
 11
70832.51517159598
 21
128500.0035053975
 31
0.0
  0
LINE
  5
79
330
20
100
AcDbEntity
  8
2
  6
Continuous
 62
     1
100
AcDbLine
 10
90832.50916234312
 20
96000.00088371363
 30
0.0
 11
90832.50916234312
 21
96500.00321082627
 31
0.0
  0
LINE
  5
7A
330
20
100
AcDbEntity
  8
2
  6
Continuous
 62
     1
100
AcDbLine
 10
90832.50916234312
 20
104000.0009573564
 30
0.0
 11
90832.50916234312
 21
104500.0032844691
 31
0.0
  0
LINE
  5
7B
330
20
100
AcDbEntity
  8
2
  6
Continuous
 62
     1
100
AcDbLine
 10
90832.50916234312
 20
112000.0010309992
 30
0.0
 11
90832.50916234312
 21
112500.0033581119
 31
0.0
  0
LINE
  5
7C
330
20
100
AcDbEntity
  8
2
  6
Continuous
 62
     1
100
AcDbLine
 10
90832.50916234312
 20
120000.0011046421
 30
0.0
 11
90832.50916234312
 21
120500.0034317547
 31
0.0
  0
LINE
  5
7D
330
20
100
AcDbEntity
  8
2
  6
Continuous
 62
     1
100
AcDbLine
 10
90832.50916234312
 20
128000.0011782848
 30
0.0
 11
90832.50916234312
 21
128500.0035053975
 31
0.0
  0
LINE
  5
7E
330
20
100
AcDbEntity
  8
2
  6
Continuous
 62
     1
100
AcDbLine
 10
110832.5279265297
 20
96000.00088371363
 30
0.0
 11
110832.5279265297
 21
96500.00321082627
 31
0.0
  0
LINE
  5
7F
330
20
100
AcDbEntity
  8
2
  6
Continuous
 62
     1
100
AcDbLine
 10
110832.5279265297
 20
104000.0009573564
 30
0.0
 11
110832.5279265297
 21
104500.0032844691
 31
0.0
  0
LINE
  5
80
330
20
100
AcDbEntity
  8
2
  6
Continuous
 62
     1
100
AcDbLine
 10
110832.5279265297
 20
112000.0010309992
 30
0.0
 11
110832.5279265297
 21
112500.0033581119
 31
0.0
  0
LINE
  5
81
330
20
100
AcDbEntity
  8
2
  6
Continuous
 62
     1
100
AcDbLine
 10
110832.5279265297
 20
120000.0011046421
 30
0.0
 11
110832.5279265297
 21
120500.0034317547
 31
0.0
  0
LINE
  5
82
330
20
100
AcDbEntity
  8
2
  6
Continuous
 62
     1
100
AcDbLine
 10
110832.5279265297
 20
128000.0011782848
 30
0.0
 11
110832.5279265297
 21
128500.0035053975
 31
0.0
  0
LINE
  5
83
330
20
100
AcDbEntity
  8
2
  6
Continuous
 62
     1
100
AcDbLine
 10
130832.5219172769
 20
96000.00088371363
 30
0.0
 11
130832.5219172769
 21
96500.00321082627
 31
0.0
  0
LINE
  5
84
330
20
100
AcDbEntity
  8
2
  6
Continuous
 62
     1
100
AcDbLine
 10
130832.5219172769
 20
104000.0009573564
 30
0.0
 11
130832.5219172769
 21
104500.0032844691
 31
0.0
  0
LINE
  5
85
330
20
100
AcDbEntity
  8
2
  6
Continuous
 62
     1
100
AcDbLine
 10
130832.5219172769
 20
112000.0010309992
 30
0.0
 11
130832.5219172769
 21
112500.0033581119
 31
0.0
  0
LINE
  5
86
330
20
100
AcDbEntity
  8
2
  6
Continuous
 62
     1
100
AcDbLine
 10
130832.5219172769
 20
120000.0011046421
 30
0.0
 11
130832.5219172769
 21
120500.0034317547
 31
0.0
  0
LINE
  5
87
330
20
100
AcDbEntity
  8
2
  6
Continuous
 62
     1
100
AcDbLine
 10
130832.5219172769
 20
128000.0011782848
 30
0.0
 11
130832.5219172769
 21
128500.0035053975
 31
0.0
  0
LINE
  5
88
330
20
100
AcDbEntity
  8
2
  6
Continuous
 62
     1
100
AcDbLine
 10
150832.515908024
 20
96000.00088371363
 30
0.0
 11
150832.515908024
 21
96500.00321082627
 31
0.0
  0
LINE
  5
89
330
20
100
AcDbEntity
  8
2
  6
Continuous
 62
     4
100
AcDbLine
 10
150832.515908024
 20
104000.0009573564
 30
0.0
 11
150832.515908024
 21
104500.0032844691
 31
0.0
  0
LINE
  5
8A
330
20
100
AcDbEntity
  8
2
  6
Continuous
 62
     1
100
AcDbLine
 10
150832.515908024
 20
112000.0010309992
 30
0.0
 11
150832.515908024
 21
112500.0033581119
 31
0.0
  0
LINE
  5
8B
330
20
100
AcDbEntity
  8
2
  6
Continuous
 62
     1
100
AcDbLine
 10
150832.515908024
 20
120000.0011046421
 30
0.0
 11
150832.515908024
 21
120500.0034317547
 31
0.0
  0
LINE
  5
8C
330
20
100
AcDbEntity
  8
2
  6
Continuous
 62
     1
100
AcDbLine
 10
150832.515908024
 20
128000.0011782848
 30
0.0
 11
150832.515908024
 21
128500.0035053975
 31
0.0
  0
LINE
  5
8D
330
20
100
AcDbEntity
  8
2
  6
Continuous
 62
     1
100
AcDbLine
 10
170832.5346722106
 20
96000.00088371363
 30
0.0
 11
170832.5346722106
 21
96500.00321082627
 31
0.0
  0
LINE
  5
8E
330
20
100
AcDbEntity
  8
2
  6
Continuous
 62
     1
100
AcDbLine
 10
170832.5346722106
 20
104000.0009573564
 30
0.0
 11
170832.5346722106
 21
104500.0032844691
 31
0.0
  0
LINE
  5
8F
330
20
100
AcDbEntity
  8
2
  6
Continuous
 62
     1
100
AcDbLine
 10
170832.5346722106
 20
112000.0010309992
 30
0.0
 11
170832.5346722106
 21
112500.0033581119
 31
0.0
  0
LINE
  5
90
330
20
100
AcDbEntity
  8
2
  6
Continuous
 62
     1
100
AcDbLine
 10
170832.5346722106
 20
120000.0011046421
 30
0.0
 11
170832.5346722106
 21
120500.0034317547
 31
0.0
  0
LINE
  5
91
330
20
100
AcDbEntity
  8
2
  6
Continuous
 62
     1
100
AcDbLine
 10
170832.5346722106
 20
128000.0011782848
 30
0.0
 11
170832.5346722106
 21
128500.0035053975
 31
0.0
  0
LINE
  5
92
330
20
100
AcDbEntity
  8
2
  6
Continuous
 62
     1
100
AcDbLine
 10
210832.5226537049
 20
96000.00088371363
 30
0.0
 11
210832.5226537049
 21
96500.00321082627
 31
0.0
  0
LINE
  5
93
330
20
100
AcDbEntity
  8
2
  6
Continuous
 62
     1
100
AcDbLine
 10
210832.5226537049
 20
104000.0009573564
 30
0.0
 11
210832.5226537049
 21
104500.0032844691
 31
0.0
  0
LINE
  5
94
330
20
100
AcDbEntity
  8
2
  6
Continuous
 62
     1
100
AcDbLine
 10
210832.5226537049
 20
112000.0010309992
 30
0.0
 11
210832.5226537049
 21
112500.0033581119
 31
0.0
  0
LINE
  5
95
330
20
100
AcDbEntity
  8
2
  6
Continuous
 62
     1
100
AcDbLine
 10
210832.5226537049
 20
120000.0011046421
 30
0.0
 11
210832.5226537049
 21
120500.0034317547
 31
0.0
  0
LINE
  5
96
330
20
100
AcDbEntity
  8
2
  6
Continuous
 62
     1
100
AcDbLine
 10
210832.5226537049
 20
128000.0011782848
 30
0.0
 11
210832.5226537049
 21
128500.0035053975
 31
0.0
  0
LINE
  5
97
330
20
100
AcDbEntity
  8
2
  6
Continuous
 62
     1
100
AcDbLine
 10
230832.5166444522
 20
96000.00088371363
 30
0.0
 11
230832.5166444522
 21
96500.00321082627
 31
0.0
  0
LINE
  5
98
330
20
100
AcDbEntity
  8
2
  6
Continuous
 62
     1
100
AcDbLine
 10
230832.5166444522
 20
104000.0009573564
 30
0.0
 11
230832.5166444522
 21
104500.0032844691
 31
0.0
  0
LINE
  5
99
330
20
100
AcDbEntity
  8
2
  6
Continuous
 62
     1
100
AcDbLine
 10
230832.5166444522
 20
112000.0010309992
 30
0.0
 11
230832.5166444522
 21
112500.0033581119
 31
0.0
  0
LINE
  5
9A
330
20
100
AcDbEntity
  8
2
  6
Continuous
 62
     1
100
AcDbLine
 10
230832.5166444522
 20
120000.0011046421
 30
0.0
 11
230832.5166444522
 21
120500.0034317547
 31
0.0
  0
LINE
  5
9B
330
20
100
AcDbEntity
  8
2
  6
Continuous
 62
     1
100
AcDbLine
 10
230832.5166444522
 20
128000.0011782848
 30
0.0
 11
230832.5166444522
 21
128500.0035053975
 31
0.0
  0
LINE
  5
9C
330
20
100
AcDbEntity
  8
2
  6
Continuous
 62
     1
100
AcDbLine
 10
250832.5354086387
 20
96000.00088371363
 30
0.0
 11
250832.5354086387
 21
96500.00321082627
 31
0.0
  0
LINE
  5
9D
330
20
100
AcDbEntity
  8
2
  6
Continuous
 62
     1
100
AcDbLine
 10
250832.5354086387
 20
104000.0009573564
 30
0.0
 11
250832.5354086387
 21
104500.0032844691
 31
0.0
  0
LINE
  5
9E
330
20
100
AcDbEntity
  8
2
  6
Continuous
 62
     1
100
AcDbLine
 10
250832.5354086387
 20
112000.0010309992
 30
0.0
 11
250832.5354086387
 21
112500.0033581119
 31
0.0
  0
LINE
  5
9F
330
20
100
AcDbEntity
  8
2
  6
Continuous
 62
     1
100
AcDbLine
 10
250832.5354086387
 20
120000.0011046421
 30
0.0
 11
250832.5354086387
 21
120500.0034317547
 31
0.0
  0
LINE
  5
A0
330
20
100
AcDbEntity
  8
2
  6
Continuous
 62
     1
100
AcDbLine
 10
250832.5354086387
 20
128000.0011782848
 30
0.0
 11
250832.5354086387
 21
128500.0035053975
 31
0.0
  0
LINE
  5
A1
330
20
100
AcDbEntity
  8
2
  6
Continuous
 62
     1
100
AcDbLine
 10
270832.5046259464
 20
96000.00088371363
 30
0.0
 11
270832.5046259464
 21
96500.00321082627
 31
0.0
  0
LINE
  5
A2
330
20
100
AcDbEntity
  8
2
  6
Continuous
 62
     1
100
AcDbLine
 10
270832.5046259464
 20
104000.0009573564
 30
0.0
 11
270832.5046259464
 21
104500.0032844691
 31
0.0
  0
LINE
  5
A3
330
20
100
AcDbEntity
  8
2
  6
Continuous
 62
     1
100
AcDbLine
 10
270832.5046259464
 20
112000.0010309992
 30
0.0
 11
270832.5046259464
 21
112500.0033581119
 31
0.0
  0
LINE
  5
A4
330
20
100
AcDbEntity
  8
2
  6
Continuous
 62
     1
100
AcDbLine
 10
270832.5046259464
 20
120000.0011046421
 30
0.0
 11
270832.5046259464
 21
120500.0034317547
 31
0.0
  0
LINE
  5
A5
330
20
100
AcDbEntity
  8
2
  6
Continuous
 62
     1
100
AcDbLine
 10
270832.5046259464
 20
128000.0011782848
 30
0.0
 11
270832.5046259464
 21
128500.0035053975
 31
0.0
  0
LINE
  5
A6
330
20
100
AcDbEntity
  8
2
  6
Continuous
 62
     1
100
AcDbLine
 10
290832.5233901329
 20
96000.00088371363
 30
0.0
 11
290832.5233901329
 21
96500.00321082627
 31
0.0
  0
LINE
  5
A7
330
20
100
AcDbEntity
  8
2
  6
Continuous
 62
     1
100
AcDbLine
 10
290832.5233901329
 20
104000.0009573564
 30
0.0
 11
290832.5233901329
 21
104500.0032844691
 31
0.0
  0
LINE
  5
A8
330
20
100
AcDbEntity
  8
2
  6
Continuous
 62
     1
100
AcDbLine
 10
290832.5233901329
 20
112000.0010309992
 30
0.0
 11
290832.5233901329
 21
112500.0033581119
 31
0.0
  0
LINE
  5
A9
330
20
100
AcDbEntity
  8
2
  6
Continuous
 62
     1
100
AcDbLine
 10
290832.5233901329
 20
120000.0011046421
 30
0.0
 11
290832.5233901329
 21
120500.0034317547
 31
0.0
  0
LINE
  5
AA
330
20
100
AcDbEntity
  8
2
  6
Continuous
 62
     1
100
AcDbLine
 10
290832.5233901329
 20
128000.0011782848
 30
0.0
 11
290832.5233901329
 21
128500.0035053975
 31
0.0
  0
LINE
  5
AB
330
20
100
AcDbEntity
  8
2
  6
Continuous
 62
     1
100
AcDbLine
 10
290833.5391011477
 20
96000.00088371363
 30
0.0
 11
290833.5391011477
 21
96500.00321082627
 31
0.0
  0
LINE
  5
AC
330
20
100
AcDbEntity
  8
2
  6
Continuous
 62
     1
100
AcDbLine
 10
290833.5391011477
 20
104000.0009573564
 30
0.0
 11
290833.5391011477
 21
104500.0032844691
 31
0.0
  0
LINE
  5
AD
330
20
100
AcDbEntity
  8
2
  6
Continuous
 62
     1
100
AcDbLine
 10
290833.5391011477
 20
112000.0010309992
 30
0.0
 11
290833.5391011477
 21
112500.0033581119
 31
0.0
  0
LINE
  5
AE
330
20
100
AcDbEntity
  8
2
  6
Continuous
 62
     1
100
AcDbLine
 10
290833.5391011477
 20
120000.0011046421
 30
0.0
 11
290833.5391011477
 21
120500.0034317547
 31
0.0
  0
LINE
  5
AF
330
20
100
AcDbEntity
  8
2
  6
Continuous
 62
     1
100
AcDbLine
 10
290833.5391011477
 20
128000.0011782848
 30
0.0
 11
290833.5391011477
 21
128500.0035053975
 31
0.0
  0
LINE
  5
B0
330
20
100
AcDbEntity
  8
2
  6
Continuous
 62
     1
100
AcDbLine
 10
310832.5421543195
 20
96000.00088371363
 30
0.0
 11
310832.5421543195
 21
96500.00321082627
 31
0.0
  0
LINE
  5
B1
330
20
100
AcDbEntity
  8
2
  6
Continuous
 62
     1
100
AcDbLine
 10
310832.5421543195
 20
104000.0009573564
 30
0.0
 11
310832.5421543195
 21
104500.0032844691
 31
0.0
  0
LINE
  5
B2
330
20
100
AcDbEntity
  8
2
  6
Continuous
 62
     1
100
AcDbLine
 10
310832.5421543195
 20
112000.0010309992
 30
0.0
 11
310832.5421543195
 21
112500.0033581119
 31
0.0
  0
LINE
  5
B3
330
20
100
AcDbEntity
  8
2
  6
Continuous
 62
     1
100
AcDbLine
 10
310832.5421543195
 20
120000.0011046421
 30
0.0
 11
310832.5421543195
 21
120500.0034317547
 31
0.0
  0
LINE
  5
B4
330
20
100
AcDbEntity
  8
2
  6
Continuous
 62
     1
100
AcDbLine
 10
310832.5421543195
 20
128000.0011782848
 30
0.0
 11
310832.5421543195
 21
128500.0035053975
 31
0.0
  0
LINE
  5
B5
330
20
100
AcDbEntity
  8
2
  6
Continuous
 62
     1
100
AcDbLine
 10
330832.5113716274
 20
96000.00088371363
 30
0.0
 11
330832.5113716274
 21
96500.00321082627
 31
0.0
  0
LINE
  5
B6
330
20
100
AcDbEntity
  8
2
  6
Continuous
 62
     1
100
AcDbLine
 10
330832.5113716274
 20
104000.0009573564
 30
0.0
 11
330832.5113716274
 21
104500.0032844691
 31
0.0
  0
LINE
  5
B7
330
20
100
AcDbEntity
  8
2
  6
Continuous
 62
     1
100
AcDbLine
 10
330832.5113716274
 20
112000.0010309992
 30
0.0
 11
330832.5113716274
 21
112500.0033581119
 31
0.0
  0
LINE
  5
B8
330
20
100
AcDbEntity
  8
2
  6
Continuous
 62
     1
100
AcDbLine
 10
330832.5113716274
 20
120000.0011046421
 30
0.0
 11
330832.5113716274
 21
120500.0034317547
 31
0.0
  0
LINE
  5
B9
330
20
100
AcDbEntity
  8
2
  6
Continuous
 62
     1
100
AcDbLine
 10
330832.5113716274
 20
128000.0011782848
 30
0.0
 11
330832.5113716274
 21
128500.0035053975
 31
0.0
  0
LINE
  5
BA
330
20
100
AcDbEntity
  8
2
  6
Continuous
 62
     1
100
AcDbLine
 10
350832.5053623745
 20
96000.00088371363
 30
0.0
 11
350832.5053623745
 21
96500.00321082627
 31
0.0
  0
LINE
  5
BB
330
20
100
AcDbEntity
  8
2
  6
Continuous
 62
     1
100
AcDbLine
 10
350832.5053623745
 20
104000.0009573564
 30
0.0
 11
350832.5053623745
 21
104500.0032844691
 31
0.0
  0
LINE
  5
BC
330
20
100
AcDbEntity
  8
2
  6
Continuous
 62
     1
100
AcDbLine
 10
350832.5053623745
 20
112000.0010309992
 30
0.0
 11
350832.5053623745
 21
112500.0033581119
 31
0.0
  0
LINE
  5
BD
330
20
100
AcDbEntity
  8
2
  6
Continuous
 62
     1
100
AcDbLine
 10
350832.5053623745
 20
120000.0011046421
 30
0.0
 11
350832.5053623745
 21
120500.0034317547
 31
0.0
  0
LINE
  5
BE
330
20
100
AcDbEntity
  8
2
  6
Continuous
 62
     1
100
AcDbLine
 10
350832.5053623745
 20
128000.0011782848
 30
0.0
 11
350832.5053623745
 21
128500.0035053975
 31
0.0
  0
LINE
  5
BF
330
20
100
AcDbEntity
  8
2
  6
Continuous
 62
     1
100
AcDbLine
 10
370832.5736734397
 20
96000.00088371363
 30
0.0
 11
370832.5736734397
 21
96500.00321082627
 31
0.0
  0
LINE
  5
C0
330
20
100
AcDbEntity
  8
2
  6
Continuous
 62
     1
100
AcDbLine
 10
370832.5736734397
 20
104000.0009573564
 30
0.0
 11
370832.5736734397
 21
104500.0032844691
 31
0.0
  0
LINE
  5
C1
330
20
100
AcDbEntity
  8
2
  6
Continuous
 62
     1
100
AcDbLine
 10
370832.5736734397
 20
112000.0010309992
 30
0.0
 11
370832.5736734397
 21
112500.0033581119
 31
0.0
  0
LINE
  5
C2
330
20
100
AcDbEntity
  8
2
  6
Continuous
 62
     1
100
AcDbLine
 10
370832.5736734397
 20
120000.0011046421
 30
0.0
 11
370832.5736734397
 21
120500.0034317547
 31
0.0
  0
LINE
  5
C3
330
20
100
AcDbEntity
  8
2
  6
Continuous
 62
     1
100
AcDbLine
 10
370832.5736734397
 20
128000.0011782848
 30
0.0
 11
370832.5736734397
 21
128500.0035053975
 31
0.0
  0
LINE
  5
C4
330
20
100
AcDbEntity
  8
3
  6
Continuous
100
AcDbLine
 10
65832.5166739092
 20
169999.9984682296
 30
0.0
 11
65832.5166739092
 21
239999.9774358448
 31
0.0
  0
LINE
  5
C5
330
20
100
AcDbEntity
  8
3
  6
Continuous
100
AcDbLine
 10
65832.5166739092
 20
239999.9774358448
 30
0.0
 11
55832.51967853561
 21
239999.9774358448
 31
0.0
  0
LINE
  5
C6
330
20
100
AcDbEntity
  8
3
  6
Continuous
100
AcDbLine
 10
65832.5166739092
 20
229999.9804404711
 30
0.0
 11
55832.51967853561
 21
229999.9804404711
 31
0.0
  0
LINE
  5
C7
330
20
100
AcDbEntity
  8
3
  6
Continuous
100
AcDbLine
 10
65832.5166739092
 20
219999.9834450976
 30
0.0
 11
55832.51967853561
 21
219999.9834450976
 31
0.0
  0
LINE
  5
C8
330
20
100
AcDbEntity
  8
3
  6
Continuous
100
AcDbLine
 10
65832.5166739092
 20
210000.0112231634
 30
0.0
 11
55832.51967853561
 21
210000.0112231634
 31
0.0
  0
LINE
  5
C9
330
20
100
AcDbEntity
  8
3
  6
Continuous
100
AcDbLine
 10
65832.5166739092
 20
200000.0142277898
 30
0.0
 11
55832.51967853561
 21
200000.0142277898
 31
0.0
  0
LINE
  5
CA
330
20
100
AcDbEntity
  8
3
  6
Continuous
100
AcDbLine
 10
65832.5166739092
 20
190000.0172324162
 30
0.0
 11
55832.51967853561
 21
190000.0172324162
 31
0.0
  0
LINE
  5
CB
330
20
100
AcDbEntity
  8
3
  6
Continuous
100
AcDbLine
 10
65832.5166739092
 20
179999.9954636032
 30
0.0
 11
55832.51967853561
 21
179999.9954636032
 31
0.0
  0
LINE
  5
CD
330
20
100
AcDbEntity
  8
3
  6
Continuous
100
AcDbLine
 10
379167.4982608515
 20
112000.0010309992
 30
0.0
 11
379167.4982608515
 21
104500.0032844691
 31
0.0
  0
LINE
  5
CF
330
20
100
AcDbEntity
  8
3
  6
Continuous
100
AcDbLine
 10
65832.5166739092
 20
152000.0013992133
 30
0.0
 11
65832.5166739092
 21
144500.0036526831
 31
0.0
  0
LINE
  5
D0
330
20
100
AcDbEntity
  8
3
  6
Continuous
100
AcDbLine
 10
45832.52268316203
 20
144500.0036526831
 30
0.0
 11
45832.52268316203
 21
152000.0013992133
 31
0.0
  0
LINE
  5
D1
330
20
100
AcDbEntity
  8
3
  6
Continuous
100
AcDbLine
 10
45832.52268316203
 20
152000.0013992133
 30
0.0
 11
379167.4982608515
 21
152000.0013992133
 31
0.0
  0
LINE
  5
D2
330
20
100
AcDbEntity
  8
3
  6
Continuous
100
AcDbLine
 10
379167.4982608515
 20
152000.0013992133
 30
0.0
 11
379167.4982608515
 21
144500.0036526831
 31
0.0
  0
LINE
  5
D3
330
20
100
AcDbEntity
  8
3
  6
Continuous
100
AcDbLine
 10
65832.5166739092
 20
144000.0013255704
 30
0.0
 11
65832.5166739092
 21
136500.0035790403
 31
0.0
  0
LINE
  5
D4
330
20
100
AcDbEntity
  8
3
  6
Continuous
100
AcDbLine
 10
379167.4982608515
 20
136500.0035790403
 30
0.0
 11
45832.52268316203
 21
136500.0035790403
 31
0.0
  0
LINE
  5
D5
330
20
100
AcDbEntity
  8
3
  6
Continuous
100
AcDbLine
 10
45832.52268316203
 20
136500.0035790403
 30
0.0
 11
45832.52268316203
 21
144000.0013255704
 31
0.0
  0
LINE
  5
D6
330
20
100
AcDbEntity
  8
3
  6
Continuous
100
AcDbLine
 10
379167.4982608515
 20
144000.0013255704
 30
0.0
 11
379167.4982608515
 21
136500.0035790403
 31
0.0
  0
LINE
  5
D7
330
20
100
AcDbEntity
  8
2
  6
Continuous
 62
     1
100
AcDbLine
 10
70832.51517159598
 20
136000.0012519277
 30
0.0
 11
70832.51517159598
 21
136500.0035790403
 31
0.0
  0
LINE
  5
D8
330
20
100
AcDbEntity
  8
2
  6
Continuous
 62
     1
100
AcDbLine
 10
70832.51517159598
 20
144000.0013255704
 30
0.0
 11
70832.51517159598
 21
144500.0036526831
 31
0.0
  0
LINE
  5
D9
330
20
100
AcDbEntity
  8
2
  6
Continuous
 62
     1
100
AcDbLine
 10
90832.50916234312
 20
136000.0012519277
 30
0.0
 11
90832.50916234312
 21
136500.0035790403
 31
0.0
  0
LINE
  5
DA
330
20
100
AcDbEntity
  8
2
  6
Continuous
 62
     1
100
AcDbLine
 10
90832.50916234312
 20
144000.0013255704
 30
0.0
 11
90832.50916234312
 21
144500.0036526831
 31
0.0
  0
LINE
  5
DB
330
20
100
AcDbEntity
  8
2
  6
Continuous
 62
     1
100
AcDbLine
 10
110832.5279265297
 20
136000.0012519277
 30
0.0
 11
110832.5279265297
 21
136500.0035790403
 31
0.0
  0
LINE
  5
DC
330
20
100
AcDbEntity
  8
2
  6
Continuous
 62
     1
100
AcDbLine
 10
110832.5279265297
 20
144000.0013255704
 30
0.0
 11
110832.5279265297
 21
144500.0036526831
 31
0.0
  0
LINE
  5
DD
330
20
100
AcDbEntity
  8
2
  6
Continuous
 62
     1
100
AcDbLine
 10
130832.5219172769
 20
136000.0012519277
 30
0.0
 11
130832.5219172769
 21
136500.0035790403
 31
0.0
  0
LINE
  5
DE
330
20
100
AcDbEntity
  8
2
  6
Continuous
 62
     1
100
AcDbLine
 10
130832.5219172769
 20
144000.0013255704
 30
0.0
 11
130832.5219172769
 21
144500.0036526831
 31
0.0
  0
LINE
  5
DF
330
20
100
AcDbEntity
  8
2
  6
Continuous
 62
     1
100
AcDbLine
 10
150832.515908024
 20
136000.0012519277
 30
0.0
 11
150832.515908024
 21
136500.0035790403
 31
0.0
  0
LINE
  5
E0
330
20
100
AcDbEntity
  8
2
  6
Continuous
 62
     1
100
AcDbLine
 10
150832.515908024
 20
144000.0013255704
 30
0.0
 11
150832.515908024
 21
144500.0036526831
 31
0.0
  0
LINE
  5
E1
330
20
100
AcDbEntity
  8
2
  6
Continuous
 62
     1
100
AcDbLine
 10
170832.5346722106
 20
136000.0012519277
 30
0.0
 11
170832.5346722106
 21
136500.0035790403
 31
0.0
  0
LINE
  5
E2
330
20
100
AcDbEntity
  8
2
  6
Continuous
 62
     1
100
AcDbLine
 10
170832.5346722106
 20
144000.0013255704
 30
0.0
 11
170832.5346722106
 21
144500.0036526831
 31
0.0
  0
LINE
  5
E3
330
20
100
AcDbEntity
  8
2
  6
Continuous
 62
     1
100
AcDbLine
 10
210832.5226537049
 20
136000.0012519277
 30
0.0
 11
210832.5226537049
 21
136500.0035790403
 31
0.0
  0
LINE
  5
E4
330
20
100
AcDbEntity
  8
2
  6
Continuous
 62
     1
100
AcDbLine
 10
210832.5226537049
 20
144000.0013255704
 30
0.0
 11
210832.5226537049
 21
144500.0036526831
 31
0.0
  0
LINE
  5
E5
330
20
100
AcDbEntity
  8
2
  6
Continuous
 62
     1
100
AcDbLine
 10
230832.5166444522
 20
136000.0012519277
 30
0.0
 11
230832.5166444522
 21
136500.0035790403
 31
0.0
  0
LINE
  5
E6
330
20
100
AcDbEntity
  8
2
  6
Continuous
 62
     1
100
AcDbLine
 10
230832.5166444522
 20
144000.0013255704
 30
0.0
 11
230832.5166444522
 21
144500.0036526831
 31
0.0
  0
LINE
  5
E7
330
20
100
AcDbEntity
  8
2
  6
Continuous
 62
     1
100
AcDbLine
 10
250832.5354086387
 20
136000.0012519277
 30
0.0
 11
250832.5354086387
 21
136500.0035790403
 31
0.0
  0
LINE
  5
E8
330
20
100
AcDbEntity
  8
2
  6
Continuous
 62
     1
100
AcDbLine
 10
250832.5354086387
 20
144000.0013255704
 30
0.0
 11
250832.5354086387
 21
144500.0036526831
 31
0.0
  0
LINE
  5
E9
330
20
100
AcDbEntity
  8
2
  6
Continuous
 62
     1
100
AcDbLine
 10
270832.5046259464
 20
136000.0012519277
 30
0.0
 11
270832.5046259464
 21
136500.0035790403
 31
0.0
  0
LINE
  5
EA
330
20
100
AcDbEntity
  8
2
  6
Continuous
 62
     1
100
AcDbLine
 10
270832.5046259464
 20
144000.0013255704
 30
0.0
 11
270832.5046259464
 21
144500.0036526831
 31
0.0
  0
LINE
  5
EB
330
20
100
AcDbEntity
  8
2
  6
Continuous
 62
     1
100
AcDbLine
 10
290832.5233901329
 20
136000.0012519277
 30
0.0
 11
290832.5233901329
 21
136500.0035790403
 31
0.0
  0
LINE
  5
EC
330
20
100
AcDbEntity
  8
2
  6
Continuous
 62
     1
100
AcDbLine
 10
290832.5233901329
 20
144000.0013255704
 30
0.0
 11
290832.5233901329
 21
144500.0036526831
 31
0.0
  0
LINE
  5
ED
330
20
100
AcDbEntity
  8
2
  6
Continuous
 62
     1
100
AcDbLine
 10
290833.5391011477
 20
136000.0012519277
 30
0.0
 11
290833.5391011477
 21
136500.0035790403
 31
0.0
  0
LINE
  5
EE
330
20
100
AcDbEntity
  8
2
  6
Continuous
 62
     1
100
AcDbLine
 10
290833.5391011477
 20
144000.0013255704
 30
0.0
 11
290833.5391011477
 21
144500.0036526831
 31
0.0
  0
LINE
  5
EF
330
20
100
AcDbEntity
  8
2
  6
Continuous
 62
     1
100
AcDbLine
 10
310832.5421543195
 20
136000.0012519277
 30
0.0
 11
310832.5421543195
 21
136500.0035790403
 31
0.0
  0
LINE
  5
F0
330
20
100
AcDbEntity
  8
2
  6
Continuous
 62
     1
100
AcDbLine
 10
310832.5421543195
 20
144000.0013255704
 30
0.0
 11
310832.5421543195
 21
144500.0036526831
 31
0.0
  0
LINE
  5
F1
330
20
100
AcDbEntity
  8
2
  6
Continuous
 62
     1
100
AcDbLine
 10
330832.5113716274
 20
136000.0012519277
 30
0.0
 11
330832.5113716274
 21
136500.0035790403
 31
0.0
  0
LINE
  5
F2
330
20
100
AcDbEntity
  8
2
  6
Continuous
 62
     1
100
AcDbLine
 10
330832.5113716274
 20
144000.0013255704
 30
0.0
 11
330832.5113716274
 21
144500.0036526831
 31
0.0
  0
LINE
  5
F3
330
20
100
AcDbEntity
  8
2
  6
Continuous
 62
     1
100
AcDbLine
 10
350832.5053623745
 20
136000.0012519277
 30
0.0
 11
350832.5053623745
 21
136500.0035790403
 31
0.0
  0
LINE
  5
F4
330
20
100
AcDbEntity
  8
2
  6
Continuous
 62
     1
100
AcDbLine
 10
350832.5053623745
 20
144000.0013255704
 30
0.0
 11
350832.5053623745
 21
144500.0036526831
 31
0.0
  0
LINE
  5
F5
330
20
100
AcDbEntity
  8
3
  6
Continuous
100
AcDbLine
 10
370832.5736734397
 20
136000.0012519277
 30
0.0
 11
370832.5736734397
 21
136500.0035790403
 31
0.0
  0
LINE
  5
F6
330
20
100
AcDbEntity
  8
3
  6
Continuous
100
AcDbLine
 10
370832.5736734397
 20
144000.0013255704
 30
0.0
 11
370832.5736734397
 21
144500.0036526831
 31
0.0
  0
LINE
  5
F7
330
20
100
AcDbEntity
  8
3
  6
Continuous
100
AcDbLine
 10
65832.5166739092
 20
160000.0014728561
 30
0.0
 11
65832.5166739092
 21
152500.0037263259
 31
0.0
  0
LINE
  5
F8
330
20
100
AcDbEntity
  8
3
  6
Continuous
100
AcDbLine
 10
379167.4982608515
 20
152500.0037263259
 30
0.0
 11
45832.52268316203
 21
152500.0037263259
 31
0.0
  0
LINE
  5
F9
330
20
100
AcDbEntity
  8
3
  6
Continuous
100
AcDbLine
 10
45832.52268316203
 20
152500.0037263259
 30
0.0
 11
45832.52268316203
 21
160000.0014728561
 31
0.0
  0
LINE
  5
FA
330
20
100
AcDbEntity
  8
3
  6
Continuous
100
AcDbLine
 10
45832.52268316203
 20
160000.0014728561
 30
0.0
 11
379167.4982608515
 21
160000.0014728561
 31
0.0
  0
LINE
  5
FB
330
20
100
AcDbEntity
  8
3
  6
Continuous
100
AcDbLine
 10
379167.4982608515
 20
160000.0014728561
 30
0.0
 11
379167.4982608515
 21
152500.0037263259
 31
0.0
  0
LINE
  5
FC
330
20
100
AcDbEntity
  8
2
  6
Continuous
 62
     1
100
AcDbLine
 10
70832.51517159598
 20
152000.0013992133
 30
0.0
 11
70832.51517159598
 21
152500.0037263259
 31
0.0
  0
LINE
  5
FD
330
20
100
AcDbEntity
  8
2
  6
Continuous
 62
     1
100
AcDbLine
 10
90832.50916234312
 20
152000.0013992133
 30
0.0
 11
90832.50916234312
 21
152500.0037263259
 31
0.0
  0
LINE
  5
FE
330
20
100
AcDbEntity
  8
2
  6
Continuous
 62
     1
100
AcDbLine
 10
110832.5279265297
 20
152000.0013992133
 30
0.0
 11
110832.5279265297
 21
152500.0037263259
 31
0.0
  0
LINE
  5
FF
330
20
100
AcDbEntity
  8
2
  6
Continuous
 62
     1
100
AcDbLine
 10
130832.5219172769
 20
152000.0013992133
 30
0.0
 11
130832.5219172769
 21
152500.0037263259
 31
0.0
  0
LINE
  5
100
330
20
100
AcDbEntity
  8
2
  6
Continuous
 62
     1
100
AcDbLine
 10
150832.515908024
 20
152000.0013992133
 30
0.0
 11
150832.515908024
 21
152500.0037263259
 31
0.0
  0
LINE
  5
101
330
20
100
AcDbEntity
  8
2
  6
Continuous
 62
     1
100
AcDbLine
 10
170832.5346722106
 20
152000.0013992133
 30
0.0
 11
170832.5346722106
 21
152500.0037263259
 31
0.0
  0
LINE
  5
102
330
20
100
AcDbEntity
  8
2
  6
Continuous
 62
     1
100
AcDbLine
 10
210832.5226537049
 20
152000.0013992133
 30
0.0
 11
210832.5226537049
 21
152500.0037263259
 31
0.0
  0
LINE
  5
103
330
20
100
AcDbEntity
  8
2
  6
Continuous
 62
     1
100
AcDbLine
 10
211944.5032539515
 20
152000.0013992133
 30
0.0
 11
211944.5032539515
 21
152500.0037263259
 31
0.0
  0
LINE
  5
104
330
20
100
AcDbEntity
  8
2
  6
Continuous
 62
     1
100
AcDbLine
 10
230832.5166444522
 20
152000.0013992133
 30
0.0
 11
230832.5166444522
 21
152500.0037263259
 31
0.0
  0
LINE
  5
105
330
20
100
AcDbEntity
  8
2
  6
Continuous
 62
     1
100
AcDbLine
 10
250832.5354086387
 20
152000.0013992133
 30
0.0
 11
250832.5354086387
 21
152500.0037263259
 31
0.0
  0
LINE
  5
106
330
20
100
AcDbEntity
  8
2
  6
Continuous
 62
     1
100
AcDbLine
 10
270832.5046259464
 20
152000.0013992133
 30
0.0
 11
270832.5046259464
 21
152500.0037263259
 31
0.0
  0
LINE
  5
107
330
20
100
AcDbEntity
  8
2
  6
Continuous
 62
     1
100
AcDbLine
 10
290832.5233901329
 20
152000.0013992133
 30
0.0
 11
290832.5233901329
 21
152500.0037263259
 31
0.0
  0
LINE
  5
108
330
20
100
AcDbEntity
  8
2
  6
Continuous
 62
     1
100
AcDbLine
 10
290833.5391011477
 20
152000.0013992133
 30
0.0
 11
290833.5391011477
 21
152500.0037263259
 31
0.0
  0
LINE
  5
109
330
20
100
AcDbEntity
  8
2
  6
Continuous
 62
     1
100
AcDbLine
 10
310832.5421543195
 20
152000.0013992133
 30
0.0
 11
310832.5421543195
 21
152500.0037263259
 31
0.0
  0
LINE
  5
10A
330
20
100
AcDbEntity
  8
2
  6
Continuous
 62
     1
100
AcDbLine
 10
330832.5113716274
 20
152000.0013992133
 30
0.0
 11
330832.5113716274
 21
152500.0037263259
 31
0.0
  0
LINE
  5
10B
330
20
100
AcDbEntity
  8
2
  6
Continuous
 62
     1
100
AcDbLine
 10
350832.5053623745
 20
152000.0013992133
 30
0.0
 11
350832.5053623745
 21
152500.0037263259
 31
0.0
  0
LINE
  5
10C
330
20
100
AcDbEntity
  8
3
  6
Continuous
100
AcDbLine
 10
370832.5736734397
 20
152000.0013992133
 30
0.0
 11
370832.5736734397
 21
152500.0037263259
 31
0.0
  0
TEXT
  5
10D
330
20
100
AcDbEntity
  8
文字
100
AcDbText
 10
49082.52587189545
 20
99000.00245966968
 30
0.0
 40
2500.0
  1
単  距  離
100
AcDbText
  0
TEXT
  5
10E
330
20
100
AcDbEntity
  8
文字
100
AcDbText
 10
48395.01348517575
 20
106999.9901465927
 30
0.0
 40
2500.0
  1
追 加 距 離
100
AcDbText
  0
TEXT
  5
10F
330
20
100
AcDbEntity
  8
文字
100
AcDbText
 10
49082.52587189545
 20
115000.0026069553
 30
0.0
 40
2500.0
  1
地  盤  高
100
AcDbText
  0
TEXT
  5
110
330
20
100
AcDbEntity
  8
文字
100
AcDbText
 10
55957.52495137574
 20
200249.9782311833
 30
0.0
 40
1500.0
  1
 26.00 m 
 50
0.000141941394745
100
AcDbText
  0
TEXT
  5
111
330
20
100
AcDbEntity
  8
2
 62
     7
100
AcDbText
 10
91832.51381656836
 20
104937.5021577341
 30
0.0
 40
1500.0
  1
 20.00
 50
90.0
100
AcDbText
  0
TEXT
  5
113
330
20
100
AcDbEntity
  8
2
 62
     7
100
AcDbText
 10
111832.5325807549
 20
104937.5021577341
 30
0.0
 40
1500.0
  1
 40.00
 50
90.0
100
AcDbText
  0
TEXT
  5
114
330
20
100
AcDbEntity
  8
2
 62
     7
100
AcDbText
 10
131832.5265715021
 20
104937.5021577341
 30
0.0
 40
1500.0
  1
 60.00
 50
90.0
100
AcDbText
  0
TEXT
  5
115
330
20
100
AcDbEntity
  8
2
 62
     7
100
AcDbText
 10
151832.5453356887
 20
104937.5021577341
 30
0.0
 40
1500.0
  1
 80.00
 50
90.0
100
AcDbText
  0
TEXT
  5
116
330
20
100
AcDbEntity
  8
2
 62
     7
100
AcDbText
 10
171832.5517131555
 20
104937.5021577341
 30
0.0
 40
1500.0
  1
100.00
 50
90.0
100
AcDbText
  0
TEXT
  5
117
330
20
100
AcDbEntity
  8
2
 62
     7
100
AcDbText
 10
191832.533317183
 20
104937.5021577341
 30
0.0
 40
1500.0
  1
120.00
 50
90.0
100
AcDbText
  0
TEXT
  5
118
330
20
100
AcDbEntity
  8
2
 62
     7
100
AcDbText
 10
211832.5273079301
 20
104937.5021577341
 30
0.0
 40
1500.0
  1
140.00
 50
90.0
100
AcDbText
  0
TEXT
  5
119
330
20
100
AcDbEntity
  8
2
 62
     7
100
AcDbText
 10
231832.5212986773
 20
104937.5021577341
 30
0.0
 40
1500.0
  1
160.00
 50
90.0
100
AcDbText
  0
TEXT
  5
11B
330
20
100
AcDbEntity
  8
2
 62
     7
100
AcDbText
 10
251832.5400628639
 20
104937.5021577341
 30
0.0
 40
1500.0
  1
180.00
 50
90.0
100
AcDbText
  0
TEXT
  5
11D
330
20
100
AcDbEntity
  8
2
 62
     7
100
AcDbText
 10
271832.5340536111
 20
104937.5021577341
 30
0.0
 40
1500.0
  1
200.00
 50
90.0
100
AcDbText
  0
TEXT
  5
11F
330
20
100
AcDbEntity
  8
2
 62
     7
100
AcDbText
 10
291832.5280443582
 20
104937.5021577341
 30
0.0
 40
1500.0
  1
220.00
 50
90.0
100
AcDbText
  0
TEXT
  5
121
330
20
100
AcDbEntity
  8
2
 62
     7
100
AcDbText
 10
311832.5468085447
 20
104937.5021577341
 30
0.0
 40
1500.0
  1
240.00
 50
90.0
100
AcDbText
  0
TEXT
  5
122
330
20
100
AcDbEntity
  8
2
 62
     7
100
AcDbText
 10
331832.5160258525
 20
104937.5021577341
 30
0.0
 40
1500.0
  1
260.00
 50
90.0
100
AcDbText
  0
TEXT
  5
124
330
20
100
AcDbEntity
  8
2
 62
     7
100
AcDbText
 10
351832.5100165997
 20
104937.5021577341
 30
0.0
 40
1500.0
  1
280.00
 50
90.0
100
AcDbText
  0
TEXT
  5
125
330
20
100
AcDbEntity
  8
2
 62
     7
100
AcDbText
 10
371832.5783276649
 20
104937.5021577341
 30
0.0
 40
1500.0
  1
300.00
 50
90.0
100
AcDbText
  0
TEXT
  5
126
330
20
100
AcDbEntity
  8
文字
100
AcDbText
 10
55957.52495136039
 20
240249.941439242
 30
0.0
 40
1500.0
  1
 34.00 m 
100
AcDbText
  0
TEXT
  5
127
330
20
100
AcDbEntity
  8
文字
100
AcDbText
 10
55957.52495136039
 20
230249.9939907472
 30
0.0
 40
1500.0
  1
 32.00 m 
100
AcDbText
  0
TEXT
  5
128
330
20
100
AcDbEntity
  8
文字
100
AcDbText
 10
55957.52495136039
 20
220249.9474484948
 30
0.0
 40
1500.0
  1
 30.00 m 
100
AcDbText
  0
TEXT
  5
129
330
20
100
AcDbEntity
  8
文字
100
AcDbText
 10
55957.52495136039
 20
210250.0
 30
0.0
 40
1500.0
  1
 28.00 m 
100
AcDbText
  0
TEXT
  5
12A
330
20
100
AcDbEntity
  8
文字
100
AcDbText
 10
55957.52495137574
 20
190249.9812358097
 30
0.0
 40
1500.0
  1
 24.00 m 
 50
0.000141941394745
100
AcDbText
  0
TEXT
  5
12B
330
20
100
AcDbEntity
  8
文字
100
AcDbText
 10
55957.52495137574
 20
180249.9842404436
 30
0.0
 40
1500.0
  1
 22.00 m 
 50
359.9998580586052
100
AcDbText
  0
TEXT
  5
12C
330
20
100
AcDbEntity
  8
文字
100
AcDbText
 10
55957.52495137574
 20
170249.98724507
 30
0.0
 40
1500.0
  1
 20.00 m 
 50
359.9998580586052
100
AcDbText
  0
TEXT
  5
12D
330
20
100
AcDbEntity
  8
文字
100
AcDbText
 10
49082.52587189545
 20
91000.00238602687
 30
0.0
 40
2500.0
  1
測      点
100
AcDbText
  0
TEXT
  5
12E
330
20
100
AcDbEntity
  8
2
 62
     7
100
AcDbText
 10
71832.51982582123
 20
104937.5021577341
 30
0.0
 40
1500.0
  1
  0.00
 50
90.0
100
AcDbText
  0
TEXT
  5
12F
330
20
100
AcDbEntity
  8
2
 62
     7
100
AcDbText
 10
71832.51982582123
 20
90062.51439716825
 30
0.0
 40
1500.0
  1
No.0
 50
90.0
100
AcDbText
  0
TEXT
  5
130
330
20
100
AcDbEntity
  8
2
 62
     7
100
AcDbText
 10
71832.51982582123
 20
97499.99589073153
 30
0.0
 40
1500.0
  1
 0.00
 50
90.0
100
AcDbText
  0
TEXT
  5
131
330
20
100
AcDbEntity
  8
2
 62
     7
100
AcDbText
 10
91832.51381656836
 20
88937.50201044856
 30
0.0
 40
1500.0
  1
No , 1
 50
90.0
100
AcDbText
  0
TEXT
  5
132
330
20
100
AcDbEntity
  8
2
 62
     7
100
AcDbText
 10
111832.5325807549
 20
88937.50201044856
 30
0.0
 40
1500.0
  1
No , 2
 50
90.0
100
AcDbText
  0
TEXT
  5
133
330
20
100
AcDbEntity
  8
2
 62
     7
100
AcDbText
 10
131832.5265715021
 20
88937.50201044856
 30
0.0
 40
1500.0
  1
No , 3
 50
90.0
100
AcDbText
  0
TEXT
  5
134
330
20
100
AcDbEntity
  8
2
 62
     7
100
AcDbText
 10
151832.5453356887
 20
88937.50201044856
 30
0.0
 40
1500.0
  1
No , 4
 50
90.0
100
AcDbText
  0
TEXT
  5
135
330
20
100
AcDbEntity
  8
2
 62
     7
100
AcDbText
 10
171832.5517131555
 20
88937.50201044856
 30
0.0
 40
1500.0
  1
No , 5
 50
90.0
100
AcDbText
  0
TEXT
  5
136
330
20
100
AcDbEntity
  8
2
 62
     7
100
AcDbText
 10
191832.533317183
 20
88937.50201044856
 30
0.0
 40
1500.0
  1
No , 6
 50
90.0
100
AcDbText
  0
TEXT
  5
137
330
20
100
AcDbEntity
  8
2
 62
     7
100
AcDbText
 10
211832.5273079301
 20
88937.50201044856
 30
0.0
 40
1500.0
  1
No , 7
 50
90.0
100
AcDbText
  0
TEXT
  5
138
330
20
100
AcDbEntity
  8
2
 62
     7
100
AcDbText
 10
231832.5212986773
 20
88937.50201044856
 30
0.0
 40
1500.0
  1
No , 8
 50
90.0
100
AcDbText
  0
TEXT
  5
139
330
20
100
AcDbEntity
  8
2
 62
     7
100
AcDbText
 10
251832.5400628639
 20
88937.50201044856
 30
0.0
 40
1500.0
  1
No , 9
 50
90.0
100
AcDbText
  0
TEXT
  5
13A
330
20
100
AcDbEntity
  8
2
 62
     7
100
AcDbText
 10
271832.5092801716
 20
89500.00820380839
 30
0.0
 40
1500.0
  1
No,10
 50
90.0
100
AcDbText
  0
TEXT
  5
13B
330
20
100
AcDbEntity
  8
2
 62
     7
100
AcDbText
 10
291832.5280443582
 20
89500.00820380839
 30
0.0
 40
1500.0
  1
No,11
 50
90.0
100
AcDbText
  0
TEXT
  5
13C
330
20
100
AcDbEntity
  8
2
 62
     7
100
AcDbText
 10
311832.5468085447
 20
89500.00820380839
 30
0.0
 40
1500.0
  1
No,12
 50
90.0
100
AcDbText
  0
TEXT
  5
13D
330
20
100
AcDbEntity
  8
2
 62
     7
100
AcDbText
 10
331832.5160258525
 20
89500.00820380839
 30
0.0
 40
1500.0
  1
No,13
 50
90.0
100
AcDbText
  0
TEXT
  5
13E
330
20
100
AcDbEntity
  8
2
 62
     7
100
AcDbText
 10
351832.5100165997
 20
89500.00820380839
 30
0.0
 40
1500.0
  1
No,14
 50
90.0
100
AcDbText
  0
TEXT
  5
13F
330
20
100
AcDbEntity
  8
2
 62
     7
100
AcDbText
 10
371832.5783276649
 20
89500.00820380839
 30
0.0
 40
1500.0
  1
No,15
 50
90.0
100
AcDbText
  0
TEXT
  5
140
330
20
100
AcDbEntity
  8
文字
100
AcDbText
 10
49082.52587189545
 20
155000.0029751693
 30
0.0
 40
2500.0
  1
勾　　　配
100
AcDbText
  0
TEXT
  5
141
330
20
100
AcDbEntity
  8
文字
100
AcDbText
 10
49082.52587189545
 20
147000.0029015265
 30
0.0
 40
2500.0
  1
盛　　　土
100
AcDbText
  0
TEXT
  5
142
330
20
100
AcDbEntity
  8
文字
100
AcDbText
 10
49082.52587189545
 20
139000.0028278837
 30
0.0
 40
2500.0
  1
切　　　土
100
AcDbText
  0
TEXT
  5
143
330
20
100
AcDbEntity
  8
文字
100
AcDbText
 10
49082.52587189545
 20
131000.0027542409
 30
0.0
 40
2500.0
  1
計画河床高
100
AcDbText
  0
TEXT
  5
144
330
20
100
AcDbEntity
  8
文字
100
AcDbText
 10
49082.52587189545
 20
123000.002680598
 30
0.0
 40
2500.0
  1
計　画　高
100
AcDbText
  0
TEXT
  5
145
330
20
100
AcDbEntity
  8
文字
100
AcDbText
 10
195000.0097208501
 20
275249.9804699283
 30
0.0
 40
4000.0
  1
縦 　断 　図 
100
AcDbText
  0
LINE
  5
14F
330
20
100
AcDbEntity
  8
2
  6
Continuous
 62
     1
100
AcDbLine
 10
190832.5534363971
 20
96000.00088371363
 30
0.0
 11
190832.5534363971
 21
96500.00321082627
 31
0.0
  0
LINE
  5
150
330
20
100
AcDbEntity
  8
2
  6
Continuous
 62
     1
100
AcDbLine
 10
190832.5534363971
 20
104000.0009573564
 30
0.0
 11
190832.5534363971
 21
104500.0032844691
 31
0.0
  0
LINE
  5
151
330
20
100
AcDbEntity
  8
2
  6
Continuous
 62
     1
100
AcDbLine
 10
190832.5534363971
 20
112000.0010309992
 30
0.0
 11
190832.5534363971
 21
112500.0033581119
 31
0.0
  0
LINE
  5
152
330
20
100
AcDbEntity
  8
2
  6
Continuous
 62
     1
100
AcDbLine
 10
190832.5534363971
 20
120000.0011046421
 30
0.0
 11
190832.5534363971
 21
120500.0034317547
 31
0.0
  0
LINE
  5
153
330
20
100
AcDbEntity
  8
2
  6
Continuous
 62
     1
100
AcDbLine
 10
190832.5534363971
 20
128000.0011782848
 30
0.0
 11
190832.5534363971
 21
128500.0035053975
 31
0.0
  0
LINE
  5
154
330
20
100
AcDbEntity
  8
2
  6
Continuous
 62
     1
100
AcDbLine
 10
190832.5534363971
 20
136000.0012519277
 30
0.0
 11
190832.5534363971
 21
136500.0035790403
 31
0.0
  0
LINE
  5
155
330
20
100
AcDbEntity
  8
2
  6
Continuous
 62
     1
100
AcDbLine
 10
190832.5534363971
 20
144000.0013255704
 30
0.0
 11
190832.5534363971
 21
144500.0036526831
 31
0.0
  0
LINE
  5
156
330
20
100
AcDbEntity
  8
2
  6
Continuous
 62
     1
100
AcDbLine
 10
190832.5534363971
 20
152000.0013992133
 30
0.0
 11
190832.5534363971
 21
152500.0037263259
 31
0.0
  0
LINE
  5
157
330
20
100
AcDbEntity
  8
1
  6
Continuous
100
AcDbLine
 10
65832.5166739092
 20
239999.9774358448
 30
0.0
 11
379476.6689804451
 21
239999.9774358448
 31
0.0
  0
LINE
  5
158
330
20
100
AcDbEntity
  8
1
  6
Continuous
100
AcDbLine
 10
379167.4982608515
 20
169999.9984682296
 30
0.0
 11
379476.6689804451
 21
239999.9774358448
 31
0.0
  0
LINE
  5
159
330
20
100
AcDbEntity
  8
1
  6
Continuous
100
AcDbLine
 10
70832.51517159598
 20
169999.9984682296
 30
0.0
 11
70832.51517159598
 21
239999.9774358448
 31
0.0
  0
LINE
  5
15A
330
20
100
AcDbEntity
  8
1
  6
Continuous
 62
     4
100
AcDbLine
 10
290832.5233901329
 20
169999.9984682296
 30
0.0
 11
290832.5233901329
 21
239999.9774358448
 31
0.0
  0
LINE
  5
15B
330
20
100
AcDbEntity
  8
1
  6
Continuous
100
AcDbLine
 10
90832.51517159597
 20
169999.9984682296
 30
0.0
 11
90832.51517159597
 21
239999.9774358448
 31
0.0
  0
LINE
  5
15C
330
20
100
AcDbEntity
  8
1
  6
Continuous
100
AcDbLine
 10
110832.515171596
 20
169999.9984682296
 30
0.0
 11
110832.515171596
 21
239999.9774358448
 31
0.0
  0
LINE
  5
15D
330
20
100
AcDbEntity
  8
1
  6
Continuous
100
AcDbLine
 10
130832.515171596
 20
169999.9984682296
 30
0.0
 11
130832.515171596
 21
239999.9774358448
 31
0.0
  0
LINE
  5
15E
330
20
100
AcDbEntity
  8
1
  6
Continuous
100
AcDbLine
 10
150832.515171596
 20
169999.9984682296
 30
0.0
 11
150832.515171596
 21
239999.9774358448
 31
0.0
  0
LINE
  5
15F
330
20
100
AcDbEntity
  8
1
  6
Continuous
100
AcDbLine
 10
170832.515171596
 20
169999.9984682296
 30
0.0
 11
170832.515171596
 21
239999.9774358448
 31
0.0
  0
LINE
  5
160
330
20
100
AcDbEntity
  8
1
  6
Continuous
100
AcDbLine
 10
190832.515171596
 20
169999.9984682296
 30
0.0
 11
190832.515171596
 21
239999.9774358448
 31
0.0
  0
LINE
  5
161
330
20
100
AcDbEntity
  8
1
  6
Continuous
100
AcDbLine
 10
210832.515171596
 20
169999.9984682296
 30
0.0
 11
210832.515171596
 21
239999.9774358448
 31
0.0
  0
LINE
  5
162
330
20
100
AcDbEntity
  8
1
  6
Continuous
100
AcDbLine
 10
230832.515171596
 20
169999.9984682296
 30
0.0
 11
230832.515171596
 21
239999.9774358448
 31
0.0
  0
LINE
  5
163
330
20
100
AcDbEntity
  8
1
  6
Continuous
100
AcDbLine
 10
250832.515171596
 20
169999.9984682296
 30
0.0
 11
250832.515171596
 21
239999.9774358448
 31
0.0
  0
LINE
  5
164
330
20
100
AcDbEntity
  8
1
  6
Continuous
100
AcDbLine
 10
270832.515171596
 20
169999.9984682296
 30
0.0
 11
270832.515171596
 21
239999.9774358448
 31
0.0
  0
LINE
  5
165
330
20
100
AcDbEntity
  8
1
  6
Continuous
100
AcDbLine
 10
290832.515171596
 20
169999.9984682296
 30
0.0
 11
290832.515171596
 21
239999.9774358448
 31
0.0
  0
LINE
  5
166
330
20
100
AcDbEntity
  8
1
  6
Continuous
100
AcDbLine
 10
310832.515171596
 20
169999.9984682296
 30
0.0
 11
310832.515171596
 21
239999.9774358448
 31
0.0
  0
LINE
  5
167
330
20
100
AcDbEntity
  8
1
  6
Continuous
100
AcDbLine
 10
330832.5151715961
 20
169999.9984682296
 30
0.0
 11
330832.5151715961
 21
239999.9774358448
 31
0.0
  0
LINE
  5
168
330
20
100
AcDbEntity
  8
1
  6
Continuous
100
AcDbLine
 10
350832.515171596
 20
169999.9984682296
 30
0.0
 11
350832.515171596
 21
239999.9774358448
 31
0.0
  0
LINE
  5
169
330
20
100
AcDbEntity
  8
1
  6
Continuous
100
AcDbLine
 10
370832.515171596
 20
169999.9984682296
 30
0.0
 11
370832.515171596
 21
239999.9774358448
 31
0.0
  0
VIEWPORT
  5
192
330
18B
100
AcDbEntity
 67
     1
  8
0
  6
Continuous
100
AcDbViewport
 10
204.0995788574219
 20
142.6315755844116
 30
0.0
 40
544.3444431849258
 41
314.237268371582
 68
     1
 69
     1
 12
204.0995788574219
 22
142.6315755844116
 13
0.0
 23
0.0
 14
10.0
 24
10.0
 15
10.0
 25
10.0
 16
0.0
 26
0.0
 36
1.0
 17
0.0
 27
0.0
 37
0.0
 42
50.0
 43
0.0
 44
0.0
 45
314.237268371582
 50
0.0
 51
0.0
 72
   100
 90
    32800
  1

281
     0
 71
     1
 74
     0
110
0.0
120
0.0
130
0.0
111
1.0
121
0.0
131
0.0
112
0.0
122
1.0
132
0.0
 79
     0
146
0.0
170
     0
  0
VIEWPORT
  5
196
330
18B
100
AcDbEntity
 67
     1
  8
2
  6
Continuous
100
AcDbViewport
 10
203.8723903162726
 20
142.6315755844115
 30
0.0
 40
404.3961228799956
 41
281.087961722718
 68
     2
 69
     3
 12
212656.1212821469
 22
183882.5004275218
 13
0.0
 23
0.0
 14
1.0
 24
1.0
 15
0.0
 25
0.0
 16
0.0
 26
0.0
 36
1.0
 17
0.0
 27
0.0
 37
0.0
 42
50.0
 43
0.0
 44
0.0
 45
281087.961722718
 50
0.0
 51
0.0
 72
   100
 90
    32800
  1

281
     0
 71
     1
 74
     0
110
0.0
120
0.0
130
0.0
111
1.0
121
0.0
131
0.0
112
0.0
122
1.0
132
0.0
 79
     0
146
0.0
170
     0
  0
ENDSEC
  0
SECTION
  2
OBJECTS
  0
DICTIONARY
  5
C
330
0
100
AcDbDictionary
281
     1
  3
ACAD_COLOR
350
1B
  3
ACAD_GROUP
350
D
  3
ACAD_LAYOUT
350
19
  3
ACAD_MATERIAL
350
1A
  3
ACAD_MLINESTYLE
350
16
  3
ACAD_PLOTSETTINGS
350
18
  3
ACAD_PLOTSTYLENAME
350
E
  0
DICTIONARY
  5
1B
102
{ACAD_REACTORS
330
C
102
}
330
C
100
AcDbDictionary
281
     1
  0
DICTIONARY
  5
D
102
{ACAD_REACTORS
330
C
102
}
330
C
100
AcDbDictionary
281
     1
  0
DICTIONARY
  5
19
102
{ACAD_REACTORS
330
C
102
}
330
C
100
AcDbDictionary
281
     1
  3
A1
350
1F
  3
A3
350
18C
  3
Model
350
23
  0
DICTIONARY
  5
1A
102
{ACAD_REACTORS
330
C
102
}
330
C
100
AcDbDictionary
281
     1
  0
DICTIONARY
  5
16
102
{ACAD_REACTORS
330
C
102
}
330
C
100
AcDbDictionary
281
     1
  3
Standard
350
17
  0
DICTIONARY
  5
18
102
{ACAD_REACTORS
330
C
102
}
330
C
100
AcDbDictionary
281
     1
  0
ACDBDICTIONARYWDFLT
  5
E
102
{ACAD_REACTORS
330
C
102
}
330
C
100
AcDbDictionary
281
     1
  3
Normal
350
F
100
AcDbDictionaryWithDefault
340
F
  0
LAYOUT
  5
1F
102
{ACAD_REACTORS
330
19
102
}
330
19
100
AcDbPlotSettings
  1

  2
HP DesignJet 450C (E_A0) by HP.pc3
  4
User271
  6

 40
4.995333194732666
 41
16.93330574035644
 42
4.99530029296875
 43
16.933349609375
 44
593.9366455078125
 45
840.8246459960937
 46
0.0
 47
0.0
 48
0.0
 49
0.0
140
0.0
141
0.0
142
1.0
143
1.0
 70
   688
 72
     1
 73
     1
 74
     5
  7
acad.ctb
 75
    16
147
1.0
 76
     1
 77
     2
 78
   150
148
0.0
149
0.0
100
AcDbLayout
  1
A1
 70
     1
 71
     1
 10
-16.933349609375
 20
-4.995333194732666
 11
823.8912963867187
 21
588.9413123130798
 12
0.0
 22
0.0
 32
0.0
 14
3.18403892145352
 24
1.828921950768517
 34
-0.0015258207003583
 15
803.7739117712854
 25
581.210784533227
 35
0.0000000349246037
146
0.0
 13
0.0
 23
0.0
 33
0.0
 16
1.0
 26
0.0
 36
0.0
 17
0.0
 27
1.0
 37
0.0
 76
     0
330
1C
331
182
  0
LAYOUT
  5
18C
102
{ACAD_REACTORS
330
19
102
}
330
19
100
AcDbPlotSettings
  1

  2
EPSON LP-6100
  4
A3
  6

 40
5.873749732971191
 41
5.873747825622558
 42
5.873748779296875
 43
5.873748779296875
 44
297.0106506347656
 45
419.9466552734374
 46
0.0
 47
0.0
 48
0.0
 49
0.0
140
0.0
141
0.0
142
1.0
143
1.0
 70
   688
 72
     1
 73
     1
 74
     5
  7

 75
    16
147
1.0
 76
     1
 77
     2
 78
   300
148
0.0
149
0.0
100
AcDbLayout
  1
A3
 70
     1
 71
     2
 10
-5.873748779296875
 20
-5.873749732971191
 11
414.0729064941406
 21
291.1369009017944
 12
0.0
 22
0.0
 32
0.0
 14
1.674328876274785
 24
2.087594723052575
 34
0.0
 15
406.0704517562703
 25
283.1755564457706
 35
0.0
146
0.0
 13
0.0
 23
0.0
 33
0.0
 16
1.0
 26
0.0
 36
0.0
 17
0.0
 27
1.0
 37
0.0
 76
     0
330
18B
331
192
  0
LAYOUT
  5
23
102
{ACAD_REACTORS
330
19
102
}
330
19
100
AcDbPlotSettings
  1

  2
EPSON LP-6100
  4

  6

 40
0.0
 41
0.0
 42
0.0
 43
0.0
 44
0.0
 45
0.0
 46
0.0
 47
0.0
 48
0.0
 49
0.0
140
0.0
141
0.0
142
1.0
143
1.0
 70
  1712
 72
     0
 73
     0
 74
     0
  7

 75
     0
147
1.0
 76
     0
 77
     2
 78
   300
148
0.0
149
0.0
100
AcDbLayout
  1
Model
 70
     1
 71
     0
 10
0.0
 20
0.0
 11
12.0
 21
9.0
 12
0.0
 22
0.0
 32
0.0
 14
0.0
 24
0.0
 34
0.0
 15
0.0
 25
0.0
 35
0.0
146
0.0
 13
0.0
 23
0.0
 33
0.0
 16
1.0
 26
0.0
 36
0.0
 17
0.0
 27
1.0
 37
0.0
 76
     0
330
20
  0
MLINESTYLE
  5
17
102
{ACAD_REACTORS
330
16
102
}
330
16
100
AcDbMlineStyle
  2
STANDARD
 70
     0
  3

 62
   256
 51
90.0
 52
90.0
 71
     2
 49
0.5
 62
   256
  6
BYLAYER
 49
-0.5
 62
   256
  6
BYLAYER
  0
ACDBPLACEHOLDER
  5
F
102
{ACAD_REACTORS
330
E
102
}
330
E
  0
ENDSEC
  0
EOF
