  0
SECTION
  2
HEADER
  9
$ACADVER
  1
AC1018
  9
$ACADMAINTVER
 70
     0
  9
$DWGCODEPAGE
  3
ANSI_932
  9
$INSBASE
 10
0.0
 20
0.0
 30
0.0
  9
$EXTMIN
 10
9941.066789246066
 20
4593.425652162777
 30
0.0
  9
$EXTMAX
 10
90944.55197908237
 20
56383.33690054965
 30
0.0
  9
$LIMMIN
 10
0.0
 20
0.0
  9
$LIMMAX
 10
84100.0
 20
59400.0
  9
$ORTHOMODE
 70
     1
  9
$REGENMODE
 70
     1
  9
$FILLMODE
 70
     1
  9
$QTEXTMODE
 70
     0
  9
$MIRRTEXT
 70
     0
  9
$LTSCALE
 40
600.0
  9
$ATTMODE
 70
     1
  9
$TEXTSIZE
 40
0.2
  9
$TRACEWID
 40
0.05
  9
$TEXTSTYLE
  7
STANDARD
  9
$CLAYER
  8
13
  9
$CELTYPE
  6
CONTINUOUS
  9
$CECOLOR
 62
   256
  9
$CELTSCALE
 40
1.0
  9
$DISPSILH
 70
     0
  9
$DIMSCALE
 40
1.0
  9
$DIMASZ
 40
200.0
  9
$DIMEXO
 40
300.0
  9
$DIMDLI
 40
250.0
  9
$DIMRND
 40
0.0
  9
$DIMDLE
 40
0.0
  9
$DIMEXE
 40
100.0
  9
$DIMTP
 40
0.0
  9
$DIMTM
 40
0.0
  9
$DIMTXT
 40
300.0
  9
$DIMCEN
 40
120.0
  9
$DIMTSZ
 40
0.0
  9
$DIMTOL
 70
     0
  9
$DIMLIM
 70
     0
  9
$DIMTIH
 70
     0
  9
$DIMTOH
 70
     0
  9
$DIMSE1
 70
     0
  9
$DIMSE2
 70
     0
  9
$DIMTAD
 70
     1
  9
$DIMZIN
 70
     0
  9
$DIMBLK
  1
Open30
  9
$DIMASO
 70
     1
  9
$DIMSHO
 70
     1
  9
$DIMPOST
  1

  9
$DIMAPOST
  1

  9
$DIMALT
 70
     0
  9
$DIMALTD
 70
     2
  9
$DIMALTF
 40
25.4
  9
$DIMLFAC
 40
1.0
  9
$DIMTOFL
 70
     1
  9
$DIMTVP
 40
0.0
  9
$DIMTIX
 70
     0
  9
$DIMSOXD
 70
     0
  9
$DIMSAH
 70
     0
  9
$DIMBLK1
  1

  9
$DIMBLK2
  1

  9
$DIMSTYLE
  2
30°矢印
  9
$DIMCLRD
 70
     0
  9
$DIMCLRE
 70
     0
  9
$DIMCLRT
 70
     0
  9
$DIMTFAC
 40
1.0
  9
$DIMGAP
 40
100.0
  9
$DIMJUST
 70
     0
  9
$DIMSD1
 70
     0
  9
$DIMSD2
 70
     0
  9
$DIMTOLJ
 70
     1
  9
$DIMTZIN
 70
     0
  9
$DIMALTZ
 70
     0
  9
$DIMALTTZ
 70
     0
  9
$DIMUPT
 70
     1
  9
$DIMDEC
 70
     0
  9
$DIMTDEC
 70
     0
  9
$DIMALTU
 70
     2
  9
$DIMALTTD
 70
     2
  9
$DIMTXSTY
  7
テキスト
  9
$DIMAUNIT
 70
     0
  9
$DIMADEC
 70
     0
  9
$DIMALTRND
 40
0.0
  9
$DIMAZIN
 70
     0
  9
$DIMDSEP
 70
    46
  9
$DIMATFIT
 70
     0
  9
$DIMFRAC
 70
     0
  9
$DIMLDRBLK
  1
Open30
  9
$DIMLUNIT
 70
     2
  9
$DIMLWD
 70
    -2
  9
$DIMLWE
 70
    -2
  9
$DIMTMOVE
 70
     0
  9
$LUNITS
 70
     2
  9
$LUPREC
 70
     4
  9
$SKETCHINC
 40
0.1
  9
$FILLETRAD
 40
0.0
  9
$AUNITS
 70
     0
  9
$AUPREC
 70
     0
  9
$MENU
  1
.
  9
$ELEVATION
 40
0.0
  9
$PELEVATION
 40
0.0
  9
$THICKNESS
 40
0.0
  9
$LIMCHECK
 70
     0
  9
$CHAMFERA
 40
0.0
  9
$CHAMFERB
 40
0.0
  9
$CHAMFERC
 40
0.0
  9
$CHAMFERD
 40
0.0
  9
$SKPOLY
 70
     0
  9
$TDCREATE
 40
2455066.941719826
  9
$TDUCREATE
 40
2455066.566719827
  9
$TDUPDATE
 40
2455070.897449179
  9
$TDUUPDATE
 40
2455070.522449178
  9
$TDINDWG
 40
0.0679400116
  9
$TDUSRTIMER
 40
0.0679400116
  9
$USRTIMER
 70
     1
  9
$ANGBASE
 50
0.0
  9
$ANGDIR
 70
     0
  9
$PDMODE
 70
     0
  9
$PDSIZE
 40
0.0
  9
$PLINEWID
 40
0.0
  9
$SPLFRAME
 70
     0
  9
$SPLINETYPE
 70
     6
  9
$SPLINESEGS
 70
     8
  9
$HANDSEED
  5
59C
  9
$SURFTAB1
 70
     6
  9
$SURFTAB2
 70
     6
  9
$SURFTYPE
 70
     6
  9
$SURFU
 70
     6
  9
$SURFV
 70
     6
  9
$UCSBASE
  2

  9
$UCSNAME
  2

  9
$UCSORG
 10
0.0
 20
0.0
 30
0.0
  9
$UCSXDIR
 10
1.0
 20
0.0
 30
0.0
  9
$UCSYDIR
 10
0.0
 20
1.0
 30
0.0
  9
$UCSORTHOREF
  2

  9
$UCSORTHOVIEW
 70
     0
  9
$UCSORGTOP
 10
0.0
 20
0.0
 30
0.0
  9
$UCSORGBOTTOM
 10
0.0
 20
0.0
 30
0.0
  9
$UCSORGLEFT
 10
0.0
 20
0.0
 30
0.0
  9
$UCSORGRIGHT
 10
0.0
 20
0.0
 30
0.0
  9
$UCSORGFRONT
 10
0.0
 20
0.0
 30
0.0
  9
$UCSORGBACK
 10
0.0
 20
0.0
 30
0.0
  9
$PUCSBASE
  2

  9
$PUCSNAME
  2

  9
$PUCSORG
 10
0.0
 20
0.0
 30
0.0
  9
$PUCSXDIR
 10
1.0
 20
0.0
 30
0.0
  9
$PUCSYDIR
 10
0.0
 20
1.0
 30
0.0
  9
$PUCSORTHOREF
  2

  9
$PUCSORTHOVIEW
 70
     0
  9
$PUCSORGTOP
 10
0.0
 20
0.0
 30
0.0
  9
$PUCSORGBOTTOM
 10
0.0
 20
0.0
 30
0.0
  9
$PUCSORGLEFT
 10
0.0
 20
0.0
 30
0.0
  9
$PUCSORGRIGHT
 10
0.0
 20
0.0
 30
0.0
  9
$PUCSORGFRONT
 10
0.0
 20
0.0
 30
0.0
  9
$PUCSORGBACK
 10
0.0
 20
0.0
 30
0.0
  9
$USERI1
 70
     0
  9
$USERI2
 70
     0
  9
$USERI3
 70
     0
  9
$USERI4
 70
     0
  9
$USERI5
 70
     0
  9
$USERR1
 40
0.0
  9
$USERR2
 40
0.0
  9
$USERR3
 40
0.0
  9
$USERR4
 40
0.0
  9
$USERR5
 40
0.0
  9
$WORLDVIEW
 70
     1
  9
$SHADEDGE
 70
     3
  9
$SHADEDIF
 70
    70
  9
$TILEMODE
 70
     1
  9
$MAXACTVP
 70
    64
  9
$PINSBASE
 10
0.0
 20
0.0
 30
0.0
  9
$PLIMCHECK
 70
     0
  9
$PEXTMIN
 10
-16.10500714901263
 20
-5.341388314414167
 30
0.0
  9
$PEXTMAX
 10
824.8949928509874
 20
588.658611685586
 30
0.0
  9
$PLIMMIN
 10
-16.933349609375
 20
-4.995333194732666
  9
$PLIMMAX
 10
823.8912963867187
 20
588.9413123130798
  9
$UNITMODE
 70
     0
  9
$VISRETAIN
 70
     1
  9
$PLINEGEN
 70
     0
  9
$PSLTSCALE
 70
     0
  9
$TREEDEPTH
 70
  3020
  9
$CMLSTYLE
  2
Standard
  9
$CMLJUST
 70
     0
  9
$CMLSCALE
 40
1.0
  9
$PROXYGRAPHICS
 70
     1
  9
$MEASUREMENT
 70
     0
  9
$CELWEIGHT
370
    -1
  9
$ENDCAPS
280
     0
  9
$JOINSTYLE
280
     0
  9
$LWDISPLAY
290
     0
  9
$INSUNITS
 70
     0
  9
$HYPERLINKBASE
  1

  9
$STYLESHEET
  1

  9
$XEDIT
290
     1
  9
$CEPSNTYPE
380
     0
  9
$PSTYLEMODE
290
     1
  9
$FINGERPRINTGUID
  2
{67F7EA26-9AA3-4423-8831-740D831C9AC0}
  9
$VERSIONGUID
  2
{A74EB7AC-8CF0-489B-8D7A-B78B108FBEC5}
  9
$EXTNAMES
290
     1
  9
$PSVPSCALE
 40
0.0
  9
$OLESTARTUP
290
     0
  9
$SORTENTS
280
   127
  9
$INDEXCTL
280
     0
  9
$HIDETEXT
280
     0
  9
$XCLIPFRAME
290
     0
  9
$HALOGAP
280
     0
  9
$OBSCOLOR
 70
   257
  9
$OBSLTYPE
280
     0
  9
$INTERSECTIONDISPLAY
280
     0
  9
$INTERSECTIONCOLOR
 70
   257
  9
$DIMASSOC
280
     1
  9
$PROJECTNAME
  1

  0
ENDSEC
  0
SECTION
  2
CLASSES
  0
CLASS
  1
ACDBDICTIONARYWDFLT
  2
AcDbDictionaryWithDefault
  3
ObjectDBX Classes
 90
        0
 91
        1
280
     0
281
     0
  0
CLASS
  1
PLOTSETTINGS
  2
AcDbPlotSettings
  3
ObjectDBX Classes
 90
        0
 91
        2
280
     0
281
     0
  0
ENDSEC
  0
SECTION
  2
TABLES
  0
TABLE
  2
VPORT
  5
8
330
0
100
AcDbSymbolTable
 70
     2
  0
VPORT
  5
59B
330
8
100
AcDbSymbolTableRecord
100
AcDbViewportTableRecord
  2
*Active
 70
     0
 10
0.0
 20
0.0
 11
1.0
 21
1.0
 12
47906.36025923586
 22
29700.0
 13
0.0
 23
0.0
 14
1.0
 24
1.0
 15
0.0
 25
0.0
 16
0.0
 26
0.0
 36
1.0
 17
0.0
 27
0.0
 37
0.0
 40
59890.90909090909
 41
1.732272069464544
 42
50.0
 43
0.0
 44
0.0
 50
0.0
 51
0.0
 71
     0
 72
   100
 73
     1
 74
     1
 75
     0
 76
     0
 77
     0
 78
     0
281
     0
 65
     1
110
0.0
120
0.0
130
0.0
111
1.0
121
0.0
131
0.0
112
0.0
122
1.0
132
0.0
 79
     0
146
0.0
  0
ENDTAB
  0
TABLE
  2
LTYPE
  5
5
330
0
100
AcDbSymbolTable
 70
    56
  0
LTYPE
  5
13
330
5
100
AcDbSymbolTableRecord
100
AcDbLinetypeTableRecord
  2
ByBlock
 70
     0
  3

 72
    65
 73
     0
 40
0.0
  0
LTYPE
  5
14
330
5
100
AcDbSymbolTableRecord
100
AcDbLinetypeTableRecord
  2
ByLayer
 70
     0
  3

 72
    65
 73
     0
 40
0.0
  0
LTYPE
  5
15
330
5
100
AcDbSymbolTableRecord
100
AcDbLinetypeTableRecord
  2
CONTINUOUS
 70
     0
  3
実線
 72
    65
 73
     0
 40
0.0
  0
LTYPE
  5
24
330
5
100
AcDbSymbolTableRecord
100
AcDbLinetypeTableRecord
  2
DASHED1
 70
     0
  3
--  --  --  --  --  --  --  --  
 72
    65
 73
     2
 40
2.5
 49
1.25
 74
     0
 49
-1.25
 74
     0
  0
LTYPE
  5
25
330
5
100
AcDbSymbolTableRecord
100
AcDbLinetypeTableRecord
  2
DASHED2
 70
     0
  3
----    ----    ----    ----    
 72
    65
 73
     2
 40
5.0
 49
2.5
 74
     0
 49
-2.5
 74
     0
  0
LTYPE
  5
26
330
5
100
AcDbSymbolTableRecord
100
AcDbLinetypeTableRecord
  2
DASHED3
 70
     0
  3
------  ------  ------  ------  
 72
    65
 73
     2
 40
5.0
 49
3.75
 74
     0
 49
-1.25
 74
     0
  0
LTYPE
  5
27
330
5
100
AcDbSymbolTableRecord
100
AcDbLinetypeTableRecord
  2
CENTER1
 70
     0
  3
----- - ----- - ----- - ----- - 
 72
    65
 73
     4
 40
10.0
 49
6.25
 74
     0
 49
-1.25
 74
     0
 49
1.25
 74
     0
 49
-1.25
 74
     0
  0
LTYPE
  5
28
330
5
100
AcDbSymbolTableRecord
100
AcDbLinetypeTableRecord
  2
CENTER2
 70
     0
  3
----------  --  ----------  --  
 72
    65
 73
     4
 40
20.0
 49
12.5
 74
     0
 49
-2.5
 74
     0
 49
2.5
 74
     0
 49
-2.5
 74
     0
  0
LTYPE
  5
29
330
5
100
AcDbSymbolTableRecord
100
AcDbLinetypeTableRecord
  2
PHANTOM1
 70
     0
  3
--- - - --- - - --- - - --- - - 
 72
    65
 73
     6
 40
10.0
 49
3.25
 74
     0
 49
-1.25
 74
     0
 49
1.25
 74
     0
 49
-1.25
 74
     0
 49
1.25
 74
     0
 49
-1.25
 74
     0
  0
LTYPE
  5
2A
330
5
100
AcDbSymbolTableRecord
100
AcDbLinetypeTableRecord
  2
PHANTOM2
 70
     0
  3
--------  -  -  --------  -  -  
 72
    65
 73
     6
 40
20.0
 49
10.0
 74
     0
 49
-2.5
 74
     0
 49
1.25
 74
     0
 49
-2.5
 74
     0
 49
1.25
 74
     0
 49
-2.5
 74
     0
  0
LTYPE
  5
2B
330
5
100
AcDbSymbolTableRecord
100
AcDbLinetypeTableRecord
  2
DOT
 70
     0
  3
-   -   -   -   -   -   -   -   
 72
    65
 73
     2
 40
2.5
 49
0.625
 74
     0
 49
-1.875
 74
     0
  0
LTYPE
  5
2C
330
5
100
AcDbSymbolTableRecord
100
AcDbLinetypeTableRecord
  2
DUMMY
 70
     0
  3
ダミー
 72
    65
 73
     0
 40
0.0
  0
LTYPE
  5
2D
330
5
100
AcDbSymbolTableRecord
100
AcDbLinetypeTableRecord
  2
RAND1
 70
     0
  3
ランダム線1
 72
    65
 73
     4
 40
10.0
 49
1.0
 74
     0
 49
-2.0
 74
     0
 49
3.0
 74
     0
 49
-4.0
 74
     0
  0
LTYPE
  5
2E
330
5
100
AcDbSymbolTableRecord
100
AcDbLinetypeTableRecord
  2
RAND2
 70
     0
  3
ランダム線2
 72
    65
 73
     4
 40
14.0
 49
2.0
 74
     0
 49
-3.0
 74
     0
 49
4.0
 74
     0
 49
-5.0
 74
     0
  0
LTYPE
  5
2F
330
5
100
AcDbSymbolTableRecord
100
AcDbLinetypeTableRecord
  2
RAND3
 70
     0
  3
ランダム線3
 72
    65
 73
     4
 40
18.0
 49
3.0
 74
     0
 49
-4.0
 74
     0
 49
5.0
 74
     0
 49
-6.0
 74
     0
  0
LTYPE
  5
30
330
5
100
AcDbSymbolTableRecord
100
AcDbLinetypeTableRecord
  2
RAND4
 70
     0
  3
ランダム線4
 72
    65
 73
     4
 40
22.0
 49
4.0
 74
     0
 49
-5.0
 74
     0
 49
6.0
 74
     0
 49
-7.0
 74
     0
  0
LTYPE
  5
31
330
5
100
AcDbSymbolTableRecord
100
AcDbLinetypeTableRecord
  2
RAND5
 70
     0
  3
ランダム線5
 72
    65
 73
     4
 40
26.0
 49
5.0
 74
     0
 49
-6.0
 74
     0
 49
7.0
 74
     0
 49
-8.0
 74
     0
  0
LTYPE
  5
32
330
5
100
AcDbSymbolTableRecord
100
AcDbLinetypeTableRecord
  2
LONG1
 70
     0
  3
----------  --  ----------  --  
 72
    65
 73
     4
 40
40.0
 49
32.5
 74
     0
 49
-2.5
 74
     0
 49
2.5
 74
     0
 49
-2.5
 74
     0
  0
LTYPE
  5
33
330
5
100
AcDbSymbolTableRecord
100
AcDbLinetypeTableRecord
  2
LONG2
 70
     0
  3
--------  -  -  --------  -  -  
 72
    65
 73
     6
 40
40.0
 49
30.0
 74
     0
 49
-2.5
 74
     0
 49
1.25
 74
     0
 49
-2.5
 74
     0
 49
1.25
 74
     0
 49
-2.5
 74
     0
  0
LTYPE
  5
34
330
5
100
AcDbSymbolTableRecord
100
AcDbLinetypeTableRecord
  2
LONG3
 70
     0
  3
+++++++++++++++..+++++++++++++++
 72
    65
 73
     2
 40
40.0
 49
37.5
 74
     0
 49
-2.5
 74
     0
  0
LTYPE
  5
35
330
5
100
AcDbSymbolTableRecord
100
AcDbLinetypeTableRecord
  2
LONG4
 70
     0
  3
+++++++++++++++..+++++++++++++++
 72
    65
 73
     2
 40
80.0
 49
75.0
 74
     0
 49
-5.0
 74
     0
  0
LTYPE
  5
36
330
5
100
AcDbSymbolTableRecord
100
AcDbLinetypeTableRecord
  2
LONG5
 70
     0
  3
----------  --  ----------  --  
 72
    65
 73
     4
 40
60.0
 49
37.5
 74
     0
 49
-7.5
 74
     0
 49
7.5
 74
     0
 49
-7.5
 74
     0
  0
LTYPE
  5
37
330
5
100
AcDbSymbolTableRecord
100
AcDbLinetypeTableRecord
  2
DASHED
 70
     0
  3
-------   -------------   ------
 72
    65
 73
     2
 40
7.5
 49
6.0
 74
     0
 49
-1.5
 74
     0
  0
LTYPE
  5
38
330
5
100
AcDbSymbolTableRecord
100
AcDbLinetypeTableRecord
  2
DASHED_SPACED
 70
     0
  3
----        --------        ----
 72
    65
 73
     2
 40
12.0
 49
6.0
 74
     0
 49
-6.0
 74
     0
  0
LTYPE
  5
39
330
5
100
AcDbSymbolTableRecord
100
AcDbLinetypeTableRecord
  2
LONG_DASHED_DOTTED
 70
     0
  3
------------- --- --------------
 72
    65
 73
     4
 40
15.25
 49
12.0
 74
     0
 49
-1.5
 74
     0
 49
0.25
 74
     0
 49
-1.5
 74
     0
  0
LTYPE
  5
3A
330
5
100
AcDbSymbolTableRecord
100
AcDbLinetypeTableRecord
  2
LONG_DASHED_DOUBLE-DOTTED
 70
     0
  3
----------- --- --- ------------
 72
    65
 73
     6
 40
17.0
 49
12.0
 74
     0
 49
-1.5
 74
     0
 49
0.25
 74
     0
 49
-1.5
 74
     0
 49
0.25
 74
     0
 49
-1.5
 74
     0
  0
LTYPE
  5
3B
330
5
100
AcDbSymbolTableRecord
100
AcDbLinetypeTableRecord
  2
LONG_DASHED_TRIPLICATE-DOTTED
 70
     0
  3
--------- --- --- --- ----------
 72
    65
 73
     8
 40
18.75
 49
12.0
 74
     0
 49
-1.5
 74
     0
 49
0.25
 74
     0
 49
-1.5
 74
     0
 49
0.25
 74
     0
 49
-1.5
 74
     0
 49
0.25
 74
     0
 49
-1.5
 74
     0
  0
LTYPE
  5
3C
330
5
100
AcDbSymbolTableRecord
100
AcDbLinetypeTableRecord
  2
DOTTED
 70
     0
  3
   -       -       -       -    
 72
    65
 73
     2
 40
1.75
 49
0.25
 74
     0
 49
-1.5
 74
     0
  0
LTYPE
  5
3D
330
5
100
AcDbSymbolTableRecord
100
AcDbLinetypeTableRecord
  2
CHAIN
 70
     0
  3
-------------- -- --------------
 72
    65
 73
     4
 40
18.5
 49
12.0
 74
     0
 49
-1.5
 74
     0
 49
3.5
 74
     0
 49
-1.5
 74
     0
  0
LTYPE
  5
3E
330
5
100
AcDbSymbolTableRecord
100
AcDbLinetypeTableRecord
  2
CHAIN_DOUBLE_DASH
 70
     0
  3
------------ -- -- -------------
 72
    65
 73
     6
 40
23.5
 49
12.0
 74
     0
 49
-1.5
 74
     0
 49
3.5
 74
     0
 49
-1.5
 74
     0
 49
3.5
 74
     0
 49
-1.5
 74
     0
  0
LTYPE
  5
3F
330
5
100
AcDbSymbolTableRecord
100
AcDbLinetypeTableRecord
  2
DASHED_DOTTED
 70
     0
  3
-----------     -     ----------
 72
    65
 73
     4
 40
9.25
 49
6.0
 74
     0
 49
-1.5
 74
     0
 49
0.25
 74
     0
 49
-1.5
 74
     0
  0
LTYPE
  5
40
330
5
100
AcDbSymbolTableRecord
100
AcDbLinetypeTableRecord
  2
DOUBLE-DASHED_DOTTED
 70
     0
  3
------   -----------   -   -----
 72
    65
 73
     6
 40
16.75
 49
6.0
 74
     0
 49
-1.5
 74
     0
 49
6.0
 74
     0
 49
-1.5
 74
     0
 49
0.25
 74
     0
 49
-1.5
 74
     0
  0
LTYPE
  5
41
330
5
100
AcDbSymbolTableRecord
100
AcDbLinetypeTableRecord
  2
DASHED_DOUBLE-DOTTED
 70
     0
  3
---------    -    -    ---------
 72
    65
 73
     6
 40
11.0
 49
6.0
 74
     0
 49
-1.5
 74
     0
 49
0.25
 74
     0
 49
-1.5
 74
     0
 49
0.25
 74
     0
 49
-1.5
 74
     0
  0
LTYPE
  5
42
330
5
100
AcDbSymbolTableRecord
100
AcDbLinetypeTableRecord
  2
DOUBLE-DASHED_DOUBLE-DOTTED
 70
     0
  3
-----   ---------   -   -   ----
 72
    65
 73
     8
 40
18.5
 49
6.0
 74
     0
 49
-1.5
 74
     0
 49
6.0
 74
     0
 49
-1.5
 74
     0
 49
0.25
 74
     0
 49
-1.5
 74
     0
 49
0.25
 74
     0
 49
-1.5
 74
     0
  0
LTYPE
  5
43
330
5
100
AcDbSymbolTableRecord
100
AcDbLinetypeTableRecord
  2
DASHED_TRIPLICATE-DOTTED
 70
     0
  3
-------    -    -    -    ------
 72
    65
 73
     8
 40
12.75
 49
6.0
 74
     0
 49
-1.5
 74
     0
 49
0.25
 74
     0
 49
-1.5
 74
     0
 49
0.25
 74
     0
 49
-1.5
 74
     0
 49
0.25
 74
     0
 49
-1.5
 74
     0
  0
LTYPE
  5
44
330
5
100
AcDbSymbolTableRecord
100
AcDbLinetypeTableRecord
  2
DOUBLE-DASHED_TRIPLICATE-DOTTED
 70
     0
  3
-----  ---------  -  -  -  -----
 72
    65
 73
    10
 40
20.25
 49
6.0
 74
     0
 49
-1.5
 74
     0
 49
6.0
 74
     0
 49
-1.5
 74
     0
 49
0.25
 74
     0
 49
-1.5
 74
     0
 49
0.25
 74
     0
 49
-1.5
 74
     0
 49
0.25
 74
     0
 49
-1.5
 74
     0
  0
LTYPE
  5
45
330
5
100
AcDbSymbolTableRecord
100
AcDbLinetypeTableRecord
  2
UNDEFINED
 70
     0
  3
--------------------------------
 72
    65
 73
     0
 40
0.0
  0
LTYPE
  5
46
330
5
100
AcDbSymbolTableRecord
100
AcDbLinetypeTableRecord
  2
HIDDEN
 70
     0
  3
------     -----------     -----
 72
    65
 73
     2
 40
0.375
 49
0.25
 74
     0
 49
-0.125
 74
     0
  0
LTYPE
  5
47
330
5
100
AcDbSymbolTableRecord
100
AcDbLinetypeTableRecord
  2
PHANTOM2_18
 70
     0
  3
---------   ---   ---   --------
 72
    65
 73
     6
 40
1.25
 49
0.625
 74
     0
 49
-0.125
 74
     0
 49
0.125
 74
     0
 49
-0.125
 74
     0
 49
0.125
 74
     0
 49
-0.125
 74
     0
  0
LTYPE
  5
48
330
5
100
AcDbSymbolTableRecord
100
AcDbLinetypeTableRecord
  2
PHANTOM2_19
 70
     0
  3
-------------- - - -------------
 72
    65
 73
     6
 40
2.5
 49
2.0
 74
     0
 49
-0.1
 74
     0
 49
0.1
 74
     0
 49
-0.1
 74
     0
 49
0.1
 74
     0
 49
-0.1
 74
     0
  0
LTYPE
  5
49
330
5
100
AcDbSymbolTableRecord
100
AcDbLinetypeTableRecord
  2
HIDDEN2
 70
     0
  3
------     -----------     -----
 72
    65
 73
     2
 40
0.1875
 49
0.125
 74
     0
 49
-0.0625
 74
     0
  0
LTYPE
  5
4A
330
5
100
AcDbSymbolTableRecord
100
AcDbLinetypeTableRecord
  2
HIDDEN3
 70
     0
  3
----        --------        ----
 72
    65
 73
     2
 40
0.2
 49
0.1
 74
     0
 49
-0.1
 74
     0
  0
LTYPE
  5
4B
330
5
100
AcDbSymbolTableRecord
100
AcDbLinetypeTableRecord
  2
HASEN1
 70
     0
  3
----        --------        ----
 72
    65
 73
     2
 40
2.0
 49
1.0
 74
     0
 49
-1.0
 74
     0
  0
LTYPE
  5
4C
330
5
100
AcDbSymbolTableRecord
100
AcDbLinetypeTableRecord
  2
ITTEN30
 70
     0
  3
--------------- - --------------
 72
    65
 73
     4
 40
33.0
 49
30.0
 74
     0
 49
-1.0
 74
     0
 49
1.0
 74
     0
 49
-1.0
 74
     0
  0
LTYPE
  5
4D
330
5
100
AcDbSymbolTableRecord
100
AcDbLinetypeTableRecord
  2
ITTEN100
 70
     0
  3
--------------- - --------------
 72
    65
 73
     4
 40
103.0
 49
100.0
 74
     0
 49
-1.0
 74
     0
 49
1.0
 74
     0
 49
-1.0
 74
     0
  0
LTYPE
  5
4E
330
5
100
AcDbSymbolTableRecord
100
AcDbLinetypeTableRecord
  2
BORDER
 70
     0
  3
----     --------     -     ----
 72
    65
 73
     6
 40
1.759999999999999
 49
0.5
 74
     0
 49
-0.25
 74
     0
 49
0.5
 74
     0
 49
-0.25
 74
     0
 49
0.01
 74
     0
 49
-0.25
 74
     0
  0
LTYPE
  5
4F
330
5
100
AcDbSymbolTableRecord
100
AcDbLinetypeTableRecord
  2
BORDER2
 70
     0
  3
----     --------     -     ----
 72
    65
 73
     6
 40
0.8849999999999999
 49
0.25
 74
     0
 49
-0.125
 74
     0
 49
0.25
 74
     0
 49
-0.125
 74
     0
 49
0.01
 74
     0
 49
-0.125
 74
     0
  0
LTYPE
  5
50
330
5
100
AcDbSymbolTableRecord
100
AcDbLinetypeTableRecord
  2
BORDERX2
 70
     0
  3
----     --------     -     ----
 72
    65
 73
     6
 40
3.509999999999999
 49
1.0
 74
     0
 49
-0.5
 74
     0
 49
1.0
 74
     0
 49
-0.5
 74
     0
 49
0.01
 74
     0
 49
-0.5
 74
     0
  0
LTYPE
  5
51
330
5
100
AcDbSymbolTableRecord
100
AcDbLinetypeTableRecord
  2
CENTER
 70
     0
  3
----------    ----    ----------
 72
    65
 73
     4
 40
2.0
 49
1.25
 74
     0
 49
-0.25
 74
     0
 49
0.25
 74
     0
 49
-0.25
 74
     0
  0
LTYPE
  5
52
330
5
100
AcDbSymbolTableRecord
100
AcDbLinetypeTableRecord
  2
CENTERX2
 70
     0
  3
----------    ----    ----------
 72
    65
 73
     4
 40
4.0
 49
2.5
 74
     0
 49
-0.5
 74
     0
 49
0.5
 74
     0
 49
-0.5
 74
     0
  0
LTYPE
  5
53
330
5
100
AcDbSymbolTableRecord
100
AcDbLinetypeTableRecord
  2
DASHDOT
 70
     0
  3
--------        -        -------
 72
    65
 73
     4
 40
1.01
 49
0.5
 74
     0
 49
-0.25
 74
     0
 49
0.01
 74
     0
 49
-0.25
 74
     0
  0
LTYPE
  5
54
330
5
100
AcDbSymbolTableRecord
100
AcDbLinetypeTableRecord
  2
DASHDOT2
 70
     0
  3
--------        -        -------
 72
    65
 73
     4
 40
0.51
 49
0.25
 74
     0
 49
-0.125
 74
     0
 49
0.01
 74
     0
 49
-0.125
 74
     0
  0
LTYPE
  5
55
330
5
100
AcDbSymbolTableRecord
100
AcDbLinetypeTableRecord
  2
DASHDOTX2
 70
     0
  3
--------        -        -------
 72
    65
 73
     4
 40
2.009999999999999
 49
1.0
 74
     0
 49
-0.5
 74
     0
 49
0.01
 74
     0
 49
-0.5
 74
     0
  0
LTYPE
  5
408
330
5
100
AcDbSymbolTableRecord
100
AcDbLinetypeTableRecord
  2
ACAD_ISO03W100
 70
     0
  3
ISO dash space __    __    __    __    __    __
 72
    65
 73
     2
 40
30.0
 49
12.0
 74
     0
 49
-18.0
 74
     0
  0
LTYPE
  5
409
330
5
100
AcDbSymbolTableRecord
100
AcDbLinetypeTableRecord
  2
ACAD_ISO02W100
 70
     0
  3
ISO dash __ __ __ __ __ __ __ __ __ __ __ __ __
 72
    65
 73
     2
 40
15.0
 49
12.0
 74
     0
 49
-3.0
 74
     0
  0
LTYPE
  5
40A
330
5
100
AcDbSymbolTableRecord
100
AcDbLinetypeTableRecord
  2
ACAD_ISO05W100
 70
     0
  3
ISO long-dash double-dot ____ .. ____ .. ____ .
 72
    65
 73
     6
 40
33.0
 49
24.0
 74
     0
 49
-3.0
 74
     0
 49
0.0
 74
     0
 49
-3.0
 74
     0
 49
0.0
 74
     0
 49
-3.0
 74
     0
  0
LTYPE
  5
40B
330
5
100
AcDbSymbolTableRecord
100
AcDbLinetypeTableRecord
  2
ACAD_ISO07W100
 70
     0
  3
ISO dot . . . . . . . . . . . . . . . . . . . .
 72
    65
 73
     2
 40
3.0
 49
0.0
 74
     0
 49
-3.0
 74
     0
  0
LTYPE
  5
40C
330
5
100
AcDbSymbolTableRecord
100
AcDbLinetypeTableRecord
  2
DASHEDX2
 70
     0
  3
Dashed (2x) ____  ____  ____  ____  ____  ___
 72
    65
 73
     2
 40
1.5
 49
1.0
 74
     0
 49
-0.5
 74
     0
  0
ENDTAB
  0
TABLE
  2
LAYER
  5
2
330
0
100
AcDbSymbolTable
 70
    15
  0
LAYER
  5
10
330
2
100
AcDbSymbolTableRecord
100
AcDbLayerTableRecord
  2
0
 70
     0
 62
     7
  6
CONTINUOUS
370
    -3
390
F
  0
LAYER
  5
57
330
2
100
AcDbSymbolTableRecord
100
AcDbLayerTableRecord
  2
1
 70
     0
 62
     7
  6
CONTINUOUS
370
    -3
390
F
  0
LAYER
  5
58
330
2
100
AcDbSymbolTableRecord
100
AcDbLayerTableRecord
  2
3
 70
     0
 62
     7
  6
CONTINUOUS
370
    -3
390
F
  0
LAYER
  5
59
330
2
100
AcDbSymbolTableRecord
100
AcDbLayerTableRecord
  2
詳細-1
 70
     0
 62
    30
  6
CONTINUOUS
370
    -3
390
F
  0
LAYER
  5
5A
330
2
100
AcDbSymbolTableRecord
100
AcDbLayerTableRecord
  2
詳細-2
 70
     0
 62
    30
  6
CONTINUOUS
370
    -3
390
F
  0
LAYER
  5
5B
330
2
100
AcDbSymbolTableRecord
100
AcDbLayerTableRecord
  2
13
 70
     0
 62
     7
  6
CONTINUOUS
370
    -3
390
F
  0
LAYER
  5
5C
330
2
100
AcDbSymbolTableRecord
100
AcDbLayerTableRecord
  2
4
 70
     0
 62
     7
  6
CONTINUOUS
370
    -3
390
F
  0
LAYER
  5
5D
330
2
100
AcDbSymbolTableRecord
100
AcDbLayerTableRecord
  2
5
 70
     0
 62
   230
  6
CONTINUOUS
370
    -3
390
F
  0
LAYER
  5
3DC
330
2
100
AcDbSymbolTableRecord
100
AcDbLayerTableRecord
  2
zuwaku
 70
     0
 62
     7
  6
HIDDEN
370
    -3
390
F
  0
LAYER
  5
3DD
330
2
100
AcDbSymbolTableRecord
100
AcDbLayerTableRecord
  2
madowaku
 70
     0
 62
     4
  6
CONTINUOUS
370
    -3
390
F
  0
LAYER
  5
3DE
330
2
100
AcDbSymbolTableRecord
100
AcDbLayerTableRecord
  2
center
 70
     0
 62
     3
  6
CONTINUOUS
370
    -3
390
F
  0
LAYER
  5
3DF
330
2
100
AcDbSymbolTableRecord
100
AcDbLayerTableRecord
  2
寸法
 70
     0
 62
     7
  6
CONTINUOUS
370
    -3
390
F
  0
LAYER
  5
3E0
330
2
100
AcDbSymbolTableRecord
100
AcDbLayerTableRecord
  2
詳細
 70
     0
 62
     5
  6
CONTINUOUS
370
    -3
390
F
  0
LAYER
  5
3E1
330
2
100
AcDbSymbolTableRecord
100
AcDbLayerTableRecord
  2
Defpoints
 70
     0
 62
    -7
  6
CONTINUOUS
290
     0
370
    -3
390
F
  0
LAYER
  5
3E2
330
2
100
AcDbSymbolTableRecord
100
AcDbLayerTableRecord
  2
_0-0_
 70
     0
 62
     7
  6
CONTINUOUS
370
    -3
390
F
  0
ENDTAB
  0
TABLE
  2
STYLE
  5
3
330
0
100
AcDbSymbolTable
 70
     5
  0
STYLE
  5
11
330
3
100
AcDbSymbolTableRecord
100
AcDbTextStyleTableRecord
  2
STANDARD
 70
     0
 40
0.0
 41
1.0
 50
0.0
 71
     0
 42
0.2
  3
txt
  4
bigfont.shx
  0
STYLE
  5
56
330
3
100
AcDbSymbolTableRecord
100
AcDbTextStyleTableRecord
  2
TATEGAKI
 70
     4
 40
0.0
 41
1.0
 50
0.0
 71
     0
 42
1.0
  3
txt
  4
bigfont.shx
  0
STYLE
  5
3E4
330
3
100
AcDbSymbolTableRecord
100
AcDbTextStyleTableRecord
  2

 70
     1
 40
0.0
 41
1.0
 50
0.0
 71
     0
 42
0.2
  3
ltypeshp.shx
  4

  0
STYLE
  5
40D
330
3
100
AcDbSymbolTableRecord
100
AcDbTextStyleTableRecord
  2
寸法
 70
     0
 40
0.0
 41
0.7
 50
0.0
 71
     0
 42
0.2
  3
txt.shx
  4
bigfont.shx
  0
STYLE
  5
40E
330
3
100
AcDbSymbolTableRecord
100
AcDbTextStyleTableRecord
  2
テキスト
 70
     0
 40
0.0
 41
1.0
 50
0.0
 71
     0
 42
1500.0
  3
MS Gothic.ttf
  4

1001
ACAD
1000
MS Gothic
1071
    32817
  0
ENDTAB
  0
TABLE
  2
VIEW
  5
6
330
0
100
AcDbSymbolTable
 70
     0
  0
ENDTAB
  0
TABLE
  2
UCS
  5
7
330
0
100
AcDbSymbolTable
 70
     0
  0
ENDTAB
  0
TABLE
  2
APPID
  5
9
330
0
100
AcDbSymbolTable
 70
     1
  0
APPID
  5
12
330
9
100
AcDbSymbolTableRecord
100
AcDbRegAppTableRecord
  2
ACAD
 70
     0
  0
ENDTAB
  0
TABLE
  2
DIMSTYLE
  5
A
330
0
100
AcDbSymbolTable
 70
     4
100
AcDbDimStyleTable
 71
     2
340
40F
340
3A8
  0
DIMSTYLE
105
3A8
330
A
100
AcDbSymbolTableRecord
100
AcDbDimStyleTableRecord
  2
Standard
 70
     0
340
11
  0
DIMSTYLE
105
40F
330
A
100
AcDbSymbolTableRecord
100
AcDbDimStyleTableRecord
  2
30°矢印
 70
     0
 41
200.0
 42
300.0
 43
250.0
 44
100.0
 73
     0
 74
     0
 77
     1
140
300.0
141
120.0
147
100.0
172
     1
271
     0
272
     0
288
     1
289
     0
340
40E
341
3F7
342
3F7
  0
DIMSTYLE
105
527
330
A
100
AcDbSymbolTableRecord
100
AcDbDimStyleTableRecord
  2
30゜矢印値内
 70
     0
 40
100.0
 41
3.0
 42
20.0
 43
10.0
 44
1.0
 73
     0
 74
     0
 77
     1
140
4.0
141
0.0
147
1.0
172
     1
271
     0
272
     0
340
40D
341
3F7
342
3F7
  0
DIMSTYLE
105
528
330
A
100
AcDbSymbolTableRecord
100
AcDbDimStyleTableRecord
  2
30°矢印角度記入
 70
     0
 40
100.0
 41
3.0
 42
3.0
 43
10.0
 44
1.0
 73
     0
 74
     0
 77
     1
140
4.0
147
2.0
271
     0
272
     0
340
40D
341
3F7
342
3F7
  0
ENDTAB
  0
TABLE
  2
BLOCK_RECORD
  5
1
330
0
100
AcDbSymbolTable
 70
     9
  0
BLOCK_RECORD
  5
20
330
1
100
AcDbSymbolTableRecord
100
AcDbBlockTableRecord
  2
*Model_Space
340
23
  0
BLOCK_RECORD
  5
1C
330
1
100
AcDbSymbolTableRecord
100
AcDbBlockTableRecord
  2
*Paper_Space
340
1F
  0
BLOCK_RECORD
  5
63
330
1
100
AcDbSymbolTableRecord
100
AcDbBlockTableRecord
  2
-000-DOOR_S
340
0
102
{BLKREFS
331
100
331
148
331
2F6
331
2F9
331
2FA
331
2FB
331
300
331
301
331
302
331
30B
331
30C
331
311
331
312
331
313
331
317
331
319
331
31A
102
}
  0
BLOCK_RECORD
  5
3D9
330
1
100
AcDbSymbolTableRecord
100
AcDbBlockTableRecord
  2
A-1zuwaku
340
0
  0
BLOCK_RECORD
  5
3F7
330
1
100
AcDbSymbolTableRecord
100
AcDbBlockTableRecord
  2
_Open30
340
0
102
{BLKREFS
331
4FB
331
4FC
331
4FF
331
500
331
503
331
504
331
507
331
508
331
50B
331
50C
331
50F
331
510
331
513
331
514
331
517
331
518
331
51B
331
51C
331
51F
331
520
331
523
331
524
102
}
  0
BLOCK_RECORD
  5
3FD
330
1
100
AcDbSymbolTableRecord
100
AcDbBlockTableRecord
  2
_ClosedBlank
340
0
  0
BLOCK_RECORD
  5
403
330
1
100
AcDbSymbolTableRecord
100
AcDbBlockTableRecord
  2
_Dot
340
0
  0
BLOCK_RECORD
  5
48E
330
1
100
AcDbSymbolTableRecord
100
AcDbBlockTableRecord
  2
zuwakusanpleA1-1_1
340
0
102
{BLKREFS
331
498
102
}
  0
BLOCK_RECORD
  5
49B
330
1
100
AcDbSymbolTableRecord
100
AcDbBlockTableRecord
  2
*Paper_Space6
340
49C
  0
BLOCK_RECORD
  5
4A7
330
1
100
AcDbSymbolTableRecord
100
AcDbBlockTableRecord
  2
zuwakusanpleA3-1_1
340
0
102
{BLKREFS
331
4B1
102
}
  0
BLOCK_RECORD
  5
4EB
330
1
100
AcDbSymbolTableRecord
100
AcDbBlockTableRecord
  2
sunpo
340
0
1001
ACAD
1000
DesignCenter Data
1002
{
1070
     1
1070
     4
1002
}
  0
ENDTAB
  0
ENDSEC
  0
SECTION
  2
BLOCKS
  0
BLOCK
  5
21
330
20
100
AcDbEntity
  8
0
100
AcDbBlockBegin
  2
*Model_Space
 70
     0
 10
0.0
 20
0.0
 30
0.0
  3
*Model_Space
  1

  0
ENDBLK
  5
22
330
20
100
AcDbEntity
  8
0
100
AcDbBlockEnd
  0
BLOCK
  5
1D
330
1C
100
AcDbEntity
 67
     1
  8
0
100
AcDbBlockBegin
  2
*Paper_Space
 70
     0
 10
0.0
 20
0.0
 30
0.0
  3
*Paper_Space
  1

  0
ENDBLK
  5
1E
330
1C
100
AcDbEntity
 67
     1
  8
0
100
AcDbBlockEnd
  0
BLOCK
  5
64
330
63
100
AcDbEntity
  8
0
100
AcDbBlockBegin
  2
-000-DOOR_S
 70
     0
 10
0.0
 20
0.0
 30
0.0
  3
-000-DOOR_S
  1

  0
ARC
  5
65
330
63
100
AcDbEntity
  8
1
  6
Continuous
 62
     7
100
AcDbCircle
 10
0.0
 20
0.0
 30
0.0
 40
0.5
100
AcDbArc
 50
270.0
 51
0.0
  0
LINE
  5
66
330
63
100
AcDbEntity
  8
1
  6
Continuous
 62
     7
100
AcDbLine
 10
0.0
 20
-0.5
 30
0.0
 11
0.0
 21
0.0
 31
0.0
  0
ENDBLK
  5
67
330
63
100
AcDbEntity
  8
0
100
AcDbBlockEnd
  0
BLOCK
  5
3DA
330
3D9
100
AcDbEntity
  8
0
100
AcDbBlockBegin
  2
A-1zuwaku
 70
     0
 10
0.0
 20
0.0
 30
0.0
  3
A-1zuwaku
  1
.\A-1zuwaku.dwg
  0
LINE
  5
3EB
330
3D9
100
AcDbEntity
  8
zuwaku
 62
   131
100
AcDbLine
 10
0.0
 20
0.0
 30
0.0
 11
84100.0
 21
0.0
 31
0.0
  0
LINE
  5
3EC
330
3D9
100
AcDbEntity
  8
zuwaku
 62
   131
100
AcDbLine
 10
0.0
 20
0.0
 30
0.0
 11
0.0
 21
59400.0
 31
0.0
  0
LINE
  5
3ED
330
3D9
100
AcDbEntity
  8
zuwaku
 62
   131
100
AcDbLine
 10
84100.00000000001
 20
-0.0000000000205979
 30
0.0
 11
84100.00000000001
 21
59399.99999999997
 31
0.0
  0
LINE
  5
3EE
330
3D9
100
AcDbEntity
  8
zuwaku
 62
   131
100
AcDbLine
 10
0.0000000000145519
 20
59399.99999999997
 30
0.0
 11
84100.00000000001
 21
59399.99999999997
 31
0.0
  0
LINE
  5
3EF
330
3D9
100
AcDbEntity
  8
zuwaku
  6
Continuous
 62
   150
100
AcDbLine
 10
1800.0
 20
1800.0
 30
0.0
 11
1800.0
 21
57599.99999999998
 31
0.0
  0
LINE
  5
3F0
330
3D9
100
AcDbEntity
  8
zuwaku
  6
Continuous
 62
   150
100
AcDbLine
 10
82300.00000000002
 20
1800.0
 30
0.0
 11
82300.00000000002
 21
57599.99999999999
 31
0.0
  0
CIRCLE
  5
3F1
330
3D9
100
AcDbEntity
  8
詳細
  6
Continuous
100
AcDbCircle
 10
15351.5587407487
 20
42751.78350969588
 30
0.0
 40
5000.0
  0
LINE
  5
3F2
330
3D9
100
AcDbEntity
  8
zuwaku
  6
Continuous
 62
   150
100
AcDbLine
 10
1800.0
 20
57599.99999999998
 30
0.0
 11
82300.00000000002
 21
57599.99999999999
 31
0.0
  0
LINE
  5
3F3
330
3D9
100
AcDbEntity
  8
zuwaku
  6
Continuous
 62
   150
100
AcDbLine
 10
1800.0
 20
1800.0
 30
0.0
 11
82300.00000000002
 21
1800.0
 31
0.0
  0
CIRCLE
  5
3F4
330
3D9
100
AcDbEntity
  8
詳細
  6
Continuous
100
AcDbCircle
 10
28767.41452453315
 20
42751.78350969588
 30
0.0
 40
5000.0
  0
CIRCLE
  5
3F5
330
3D9
100
AcDbEntity
  8
詳細
  6
Continuous
100
AcDbCircle
 10
42805.19747137499
 20
42751.78350969588
 30
0.0
 40
5000.0
  0
CIRCLE
  5
3F6
330
3D9
100
AcDbEntity
  8
詳細
  6
Continuous
100
AcDbCircle
 10
57020.67360415065
 20
42751.78350969588
 30
0.0
 40
5000.0
  0
ENDBLK
  5
3DB
330
3D9
100
AcDbEntity
  8
0
100
AcDbBlockEnd
  0
BLOCK
  5
3F8
330
3F7
100
AcDbEntity
  8
0
100
AcDbBlockBegin
  2
_Open30
 70
     0
 10
0.0
 20
0.0
 30
0.0
  3
_Open30
  1

  0
LINE
  5
3F9
330
3F7
100
AcDbEntity
  8
0
  6
ByBlock
 62
     0
370
    -2
100
AcDbLine
 10
-1.0
 20
0.26794919
 30
0.0
 11
0.0
 21
0.0
 31
0.0
  0
LINE
  5
3FA
330
3F7
100
AcDbEntity
  8
0
  6
ByBlock
 62
     0
370
    -2
100
AcDbLine
 10
0.0
 20
0.0
 30
0.0
 11
-1.0
 21
-0.26794919
 31
0.0
  0
LINE
  5
3FB
330
3F7
100
AcDbEntity
  8
0
  6
ByBlock
 62
     0
370
    -2
100
AcDbLine
 10
0.0
 20
0.0
 30
0.0
 11
-1.0
 21
0.0
 31
0.0
  0
ENDBLK
  5
3FC
330
3F7
100
AcDbEntity
  8
0
100
AcDbBlockEnd
  0
BLOCK
  5
3FE
330
3FD
100
AcDbEntity
  8
0
100
AcDbBlockBegin
  2
_ClosedBlank
 70
     0
 10
0.0
 20
0.0
 30
0.0
  3
_ClosedBlank
  1

  0
LINE
  5
3FF
330
3FD
100
AcDbEntity
  8
0
  6
ByBlock
 62
     0
370
    -2
100
AcDbLine
 10
-1.0
 20
0.1666666666666666
 30
0.0
 11
0.0
 21
0.0
 31
0.0
  0
LINE
  5
400
330
3FD
100
AcDbEntity
  8
0
  6
ByBlock
 62
     0
370
    -2
100
AcDbLine
 10
0.0
 20
0.0
 30
0.0
 11
-1.0
 21
-0.1666666666666666
 31
0.0
  0
LINE
  5
401
330
3FD
100
AcDbEntity
  8
0
  6
ByBlock
 62
     0
370
    -2
100
AcDbLine
 10
-1.0
 20
0.1666666666666666
 30
0.0
 11
-1.0
 21
-0.1666666666666666
 31
0.0
  0
ENDBLK
  5
402
330
3FD
100
AcDbEntity
  8
0
100
AcDbBlockEnd
  0
BLOCK
  5
404
330
403
100
AcDbEntity
  8
0
100
AcDbBlockBegin
  2
_Dot
 70
     0
 10
0.0
 20
0.0
 30
0.0
  3
_Dot
  1

  0
LWPOLYLINE
  5
405
330
403
100
AcDbEntity
  8
0
  6
ByBlock
 62
     0
100
AcDbPolyline
 90
        2
 70
     1
 43
0.5
 10
-0.25
 20
0.0
 42
1.0
 10
0.25
 20
0.0
 42
1.0
  0
LINE
  5
406
330
403
100
AcDbEntity
  8
0
  6
ByBlock
 62
     0
370
    -2
100
AcDbLine
 10
-0.5
 20
0.0
 30
0.0
 11
-1.0
 21
0.0
 31
0.0
  0
ENDBLK
  5
407
330
403
100
AcDbEntity
  8
0
100
AcDbBlockEnd
  0
BLOCK
  5
48F
330
48E
100
AcDbEntity
  8
0
100
AcDbBlockBegin
  2
zuwakusanpleA1-1_1
 70
     0
 10
0.0
 20
0.0
 30
0.0
  3
zuwakusanpleA1-1_1
  1
.\zuwakusanpleA1-1_1.dwg
  0
LINE
  5
4D2
330
48E
100
AcDbEntity
  8
zuwaku
 62
   131
100
AcDbLine
 10
0.0
 20
0.0
 30
0.0
 11
841.0
 21
0.0
 31
0.0
  0
LINE
  5
4D3
330
48E
100
AcDbEntity
  8
zuwaku
 62
   131
100
AcDbLine
 10
0.0
 20
0.0
 30
0.0
 11
0.0
 21
594.0
 31
0.0
  0
LINE
  5
4D4
330
48E
100
AcDbEntity
  8
zuwaku
 62
   131
100
AcDbLine
 10
841.0000000000001
 20
-0.000000000000206
 30
0.0
 11
841.0000000000001
 21
593.9999999999997
 31
0.0
  0
LINE
  5
4D5
330
48E
100
AcDbEntity
  8
zuwaku
 62
   131
100
AcDbLine
 10
0.0000000000001455
 20
593.9999999999997
 30
0.0
 11
841.0000000000001
 21
593.9999999999997
 31
0.0
  0
LINE
  5
4D6
330
48E
100
AcDbEntity
  8
zuwaku
  6
Continuous
 62
   150
100
AcDbLine
 10
18.0
 20
18.0
 30
0.0
 11
823.0
 21
18.0
 31
0.0
  0
LINE
  5
4D7
330
48E
100
AcDbEntity
  8
zuwaku
  6
Continuous
 62
   150
100
AcDbLine
 10
18.0
 20
18.0
 30
0.0
 11
18.0
 21
575.9999999999998
 31
0.0
  0
LINE
  5
4D8
330
48E
100
AcDbEntity
  8
zuwaku
  6
Continuous
 62
   150
100
AcDbLine
 10
823.0
 20
18.0
 30
0.0
 11
823.0
 21
575.9999999999998
 31
0.0
  0
LINE
  5
4D9
330
48E
100
AcDbEntity
  8
zuwaku
  6
Continuous
 62
   150
100
AcDbLine
 10
18.0
 20
575.9999999999998
 30
0.0
 11
823.0
 21
575.9999999999998
 31
0.0
  0
ENDBLK
  5
490
330
48E
100
AcDbEntity
  8
0
100
AcDbBlockEnd
  0
BLOCK
  5
49D
330
49B
100
AcDbEntity
  8
0
100
AcDbBlockBegin
  2
*Paper_Space6
 70
     0
 10
0.0
 20
0.0
 30
0.0
  3
*Paper_Space6
  1

  0
VIEWPORT
  5
4A2
330
49B
100
AcDbEntity
  8
0
  6
Continuous
100
AcDbViewport
 10
245.3485774765049
 20
146.4676138031702
 30
0.0
 40
495.4361160581668
 41
300.076177228213
 69
     0
 12
245.3485774765049
 22
146.4676138031702
 13
0.0
 23
0.0
 14
10.0
 24
10.0
 15
10.0
 25
10.0
 16
0.0
 26
0.0
 36
1.0
 17
0.0
 27
0.0
 37
0.0
 42
50.0
 43
0.0
 44
0.0
 45
300.076177228213
 50
0.0
 51
0.0
 72
   100
 90
    32800
  1

281
     0
 71
     1
 74
     0
110
0.0
120
0.0
130
0.0
111
1.0
121
0.0
131
0.0
112
0.0
122
1.0
132
0.0
 79
     0
146
0.0
170
     0
  0
INSERT
  5
4B1
330
49B
100
AcDbEntity
  8
13
  6
Continuous
100
AcDbBlockReference
  2
zuwakusanpleA3-1_1
 10
-6.155382427279391
 20
-6.479635668053447
 30
0.0
  0
VIEWPORT
  5
4B3
330
49B
100
AcDbEntity
  8
13
  6
Continuous
100
AcDbViewport
 10
203.8446175727205
 20
142.0203643319465
 30
0.0
 40
399.9999999999998
 41
277.0
 69
     0
 12
43320.44903317593
 22
30031.24229232053
 13
0.0
 23
0.0
 14
1.0
 24
1.0
 15
0.0
 25
0.0
 16
0.0
 26
0.0
 36
1.0
 17
0.0
 27
0.0
 37
0.0
 42
50.0
 43
0.0
 44
0.0
 45
55399.99993540284
 50
0.0
 51
0.0
 72
   100
 90
    32800
  1

281
     0
 71
     1
 74
     0
110
0.0
120
0.0
130
0.0
111
1.0
121
0.0
131
0.0
112
0.0
122
1.0
132
0.0
 79
     0
146
0.0
170
     0
  0
ENDBLK
  5
49E
330
49B
100
AcDbEntity
  8
0
100
AcDbBlockEnd
  0
BLOCK
  5
4A8
330
4A7
100
AcDbEntity
  8
0
100
AcDbBlockBegin
  2
zuwakusanpleA3-1_1
 70
     0
 10
0.0
 20
0.0
 30
0.0
  3
zuwakusanpleA3-1_1
  1
.\zuwakusanpleA3-1_1.dwg
  0
LINE
  5
529
330
4A7
100
AcDbEntity
  8
zuwaku
  6
Continuous
 62
   150
100
AcDbLine
 10
10.0
 20
287.0
 30
0.0
 11
409.9999999999995
 21
287.0
 31
0.0
  0
LINE
  5
52A
330
4A7
100
AcDbEntity
  8
zuwaku
 62
   131
100
AcDbLine
 10
0.0
 20
297.0
 30
0.0
 11
419.9999999999997
 21
297.0
 31
0.0
  0
LINE
  5
52B
330
4A7
100
AcDbEntity
  8
zuwaku
 62
   131
100
AcDbLine
 10
0.0
 20
0.0
 30
0.0
 11
-0.0000000000003411
 21
297.0
 31
0.0
  0
LINE
  5
52C
330
4A7
100
AcDbEntity
  8
zuwaku
  6
Continuous
 62
   150
100
AcDbLine
 10
9.999999999999658
 20
10.0
 30
0.0
 11
10.0
 21
287.0
 31
0.0
  0
LINE
  5
52D
330
4A7
100
AcDbEntity
  8
zuwaku
 62
   131
100
AcDbLine
 10
419.9999999999997
 20
0.0
 30
0.0
 11
419.9999999999997
 21
297.0
 31
0.0
  0
LINE
  5
52E
330
4A7
100
AcDbEntity
  8
詳細
  6
Continuous
100
AcDbLine
 10
409.9999999999995
 20
287.0
 30
0.0
 11
409.9999999999997
 21
10.0
 31
0.0
  0
LINE
  5
52F
330
4A7
100
AcDbEntity
  8
zuwaku
 62
   131
100
AcDbLine
 10
0.0
 20
0.0
 30
0.0
 11
419.9999999999997
 21
0.0
 31
0.0
  0
LINE
  5
530
330
4A7
100
AcDbEntity
  8
zuwaku
 62
   131
100
AcDbLine
 10
35.29964250464104
 20
0.0
 30
0.0
 11
419.9999999999997
 21
0.0
 31
0.0
  0
LINE
  5
531
330
4A7
100
AcDbEntity
  8
zuwaku
  6
Continuous
 62
   150
100
AcDbLine
 10
9.999999999999658
 20
10.0
 30
0.0
 11
409.9999999999997
 21
10.0
 31
0.0
  0
ENDBLK
  5
4A9
330
4A7
100
AcDbEntity
  8
0
100
AcDbBlockEnd
  0
BLOCK
  5
4EC
330
4EB
100
AcDbEntity
  8
0
 62
     0
100
AcDbBlockBegin
  2
sunpo
 70
     0
 10
0.0
 20
0.0
 30
0.0
  3
sunpo
  1

  0
LINE
  5
4ED
330
4EB
100
AcDbEntity
  8
寸法
  6
Continuous
 62
     0
100
AcDbLine
 10
44507.93393173237
 20
45903.78943549642
 30
0.0
 11
61703.67516214319
 21
45903.78943549641
 31
0.0
  0
LINE
  5
4EE
330
4EB
100
AcDbEntity
  8
寸法
  6
Continuous
 62
     0
100
AcDbLine
 10
46007.93393173237
 20
44903.78943549642
 30
0.0
 11
61703.67516214319
 21
44903.78943549641
 31
0.0
  0
LINE
  5
4EF
330
4EB
100
AcDbEntity
  8
寸法
  6
Continuous
 62
     0
100
AcDbLine
 10
47507.93393173237
 20
43903.78943549642
 30
0.0
 11
61703.67516214319
 21
43903.78943549642
 31
0.0
  0
LINE
  5
4F0
330
4EB
100
AcDbEntity
  8
寸法
  6
Continuous
 62
     0
100
AcDbLine
 10
49007.93393173238
 20
42903.78943549642
 30
0.0
 11
61703.67516214319
 21
42903.78943549641
 31
0.0
  0
LINE
  5
4F1
330
4EB
100
AcDbEntity
  8
寸法
  6
Continuous
 62
     0
100
AcDbLine
 10
50507.93393173237
 20
41903.78943549641
 30
0.0
 11
61703.67516214319
 21
41903.78943549641
 31
0.0
  0
LINE
  5
4F2
330
4EB
100
AcDbEntity
  8
寸法
  6
Continuous
 62
     0
100
AcDbLine
 10
52007.93393173237
 20
40903.78943549642
 30
0.0
 11
61703.67516214319
 21
40903.78943549642
 31
0.0
  0
LINE
  5
4F3
330
4EB
100
AcDbEntity
  8
寸法
  6
Continuous
 62
     0
100
AcDbLine
 10
52007.93393173237
 20
40903.78943549642
 30
0.0
 11
61703.67516214319
 21
40903.78943549642
 31
0.0
  0
LINE
  5
4F4
330
4EB
100
AcDbEntity
  8
寸法
  6
Continuous
 62
     0
100
AcDbLine
 10
53507.93393173237
 20
39903.78943549643
 30
0.0
 11
61703.67516214319
 21
39903.78943549643
 31
0.0
  0
LINE
  5
4F5
330
4EB
100
AcDbEntity
  8
寸法
  6
Continuous
 62
     0
100
AcDbLine
 10
55007.93393173237
 20
38903.78943549642
 30
0.0
 11
61703.67516214319
 21
38903.78943549642
 31
0.0
  0
LINE
  5
4F6
330
4EB
100
AcDbEntity
  8
寸法
  6
Continuous
 62
     0
100
AcDbLine
 10
56507.93393173238
 20
37903.78943549642
 30
0.0
 11
61703.67516214319
 21
37903.78943549642
 31
0.0
  0
LINE
  5
4F7
330
4EB
100
AcDbEntity
  8
寸法
  6
Continuous
 62
     0
100
AcDbLine
 10
58007.93393173237
 20
36903.78943549642
 30
0.0
 11
61703.67516214319
 21
36903.78943549642
 31
0.0
  0
LINE
  5
4F8
330
4EB
100
AcDbEntity
  8
寸法
  6
Continuous
 62
     0
100
AcDbLine
 10
59507.93393173237
 20
35903.78943549642
 30
0.0
 11
61703.67516214319
 21
35903.78943549642
 31
0.0
  0
LINE
  5
4F9
330
4EB
100
AcDbEntity
  8
寸法
  6
Continuous
 62
     0
100
AcDbLine
 10
59507.93393173237
 20
34903.78943549643
 30
0.0
 11
61703.67516214319
 21
34903.78943549643
 31
0.0
  0
MTEXT
  5
4FA
330
4EB
100
AcDbEntity
  8
寸法
  6
Continuous
 62
     0
100
AcDbMText
 10
61303.67516214318
 20
45403.78943549642
 30
0.0
 40
400.0
 41
0.0
 71
     5
 72
     1
  1
\A1;1000
  7
寸法
 11
0.0000000000000001
 21
1.0
 31
0.0
 73
     1
 44
1.0
  0
INSERT
  5
4FB
330
4EB
100
AcDbEntity
  8
寸法
  6
Continuous
 62
     0
100
AcDbBlockReference
  2
_Open30
 10
61603.67516214319
 20
44903.78943549641
 30
0.0
 41
300.0
 42
300.0
 43
300.0
 50
270.0
  0
INSERT
  5
4FC
330
4EB
100
AcDbEntity
  8
寸法
  6
Continuous
 62
     0
100
AcDbBlockReference
  2
_Open30
 10
61603.67516214319
 20
45903.78943549641
 30
0.0
 41
300.0
 42
300.0
 43
300.0
 50
90.0
  0
LINE
  5
4FD
330
4EB
100
AcDbEntity
  8
寸法
  6
Continuous
 62
     0
100
AcDbLine
 10
61603.67516214319
 20
45603.78943549642
 30
0.0
 11
61603.67516214319
 21
45203.78943549641
 31
0.0
  0
MTEXT
  5
4FE
330
4EB
100
AcDbEntity
  8
寸法
  6
Continuous
 62
     0
100
AcDbMText
 10
61988.97370198608
 20
44416.79877764501
 30
0.0
 40
400.0
 41
0.0
 71
     5
 72
     1
  1
\A1;1000
  7
寸法
 11
0.0000000000000001
 21
1.0
 31
0.0
 73
     1
 44
1.0
  0
INSERT
  5
4FF
330
4EB
100
AcDbEntity
  8
寸法
  6
Continuous
 62
     0
100
AcDbBlockReference
  2
_Open30
 10
61603.67516214319
 20
43903.78943549642
 30
0.0
 41
300.0
 42
300.0
 43
300.0
 50
270.0
  0
INSERT
  5
500
330
4EB
100
AcDbEntity
  8
寸法
  6
Continuous
 62
     0
100
AcDbBlockReference
  2
_Open30
 10
61603.67516214319
 20
44903.78943549641
 30
0.0
 41
300.0
 42
300.0
 43
300.0
 50
90.0
  0
LINE
  5
501
330
4EB
100
AcDbEntity
  8
寸法
  6
Continuous
 62
     0
100
AcDbLine
 10
61603.67516214319
 20
44603.78943549641
 30
0.0
 11
61603.67516214319
 21
44203.78943549641
 31
0.0
  0
MTEXT
  5
502
330
4EB
100
AcDbEntity
  8
寸法
  6
Continuous
 62
     0
100
AcDbMText
 10
61303.67516214318
 20
43403.78943549642
 30
0.0
 40
400.0
 41
0.0
 71
     5
 72
     1
  1
\A1;1000
  7
寸法
 11
0.0000000000000001
 21
1.0
 31
0.0
 73
     1
 44
1.0
  0
INSERT
  5
503
330
4EB
100
AcDbEntity
  8
寸法
  6
Continuous
 62
     0
100
AcDbBlockReference
  2
_Open30
 10
61603.67516214319
 20
42903.78943549641
 30
0.0
 41
300.0
 42
300.0
 43
300.0
 50
270.0
  0
INSERT
  5
504
330
4EB
100
AcDbEntity
  8
寸法
  6
Continuous
 62
     0
100
AcDbBlockReference
  2
_Open30
 10
61603.67516214319
 20
43903.78943549642
 30
0.0
 41
300.0
 42
300.0
 43
300.0
 50
90.0
  0
LINE
  5
505
330
4EB
100
AcDbEntity
  8
寸法
  6
Continuous
 62
     0
100
AcDbLine
 10
61603.67516214319
 20
43603.78943549641
 30
0.0
 11
61603.67516214319
 21
43203.78943549641
 31
0.0
  0
MTEXT
  5
506
330
4EB
100
AcDbEntity
  8
寸法
  6
Continuous
 62
     0
100
AcDbMText
 10
61988.97370198608
 20
42416.79877764501
 30
0.0
 40
400.0
 41
0.0
 71
     5
 72
     1
  1
\A1;1000
  7
寸法
 11
0.0000000000000001
 21
1.0
 31
0.0
 73
     1
 44
1.0
  0
INSERT
  5
507
330
4EB
100
AcDbEntity
  8
寸法
  6
Continuous
 62
     0
100
AcDbBlockReference
  2
_Open30
 10
61603.67516214319
 20
41903.78943549641
 30
0.0
 41
300.0
 42
300.0
 43
300.0
 50
270.0
  0
INSERT
  5
508
330
4EB
100
AcDbEntity
  8
寸法
  6
Continuous
 62
     0
100
AcDbBlockReference
  2
_Open30
 10
61603.67516214319
 20
42903.78943549641
 30
0.0
 41
300.0
 42
300.0
 43
300.0
 50
90.0
  0
LINE
  5
509
330
4EB
100
AcDbEntity
  8
寸法
  6
Continuous
 62
     0
100
AcDbLine
 10
61603.67516214319
 20
42603.78943549642
 30
0.0
 11
61603.67516214319
 21
42203.78943549642
 31
0.0
  0
MTEXT
  5
50A
330
4EB
100
AcDbEntity
  8
寸法
  6
Continuous
 62
     0
100
AcDbMText
 10
61303.67516214318
 20
41403.78943549642
 30
0.0
 40
400.0
 41
0.0
 71
     5
 72
     1
  1
\A1;1000
  7
寸法
 11
0.0000000000000001
 21
1.0
 31
0.0
 73
     1
 44
1.0
  0
INSERT
  5
50B
330
4EB
100
AcDbEntity
  8
寸法
  6
Continuous
 62
     0
100
AcDbBlockReference
  2
_Open30
 10
61603.67516214319
 20
40903.78943549642
 30
0.0
 41
300.0
 42
300.0
 43
300.0
 50
270.0
  0
INSERT
  5
50C
330
4EB
100
AcDbEntity
  8
寸法
  6
Continuous
 62
     0
100
AcDbBlockReference
  2
_Open30
 10
61603.67516214319
 20
41903.78943549641
 30
0.0
 41
300.0
 42
300.0
 43
300.0
 50
90.0
  0
LINE
  5
50D
330
4EB
100
AcDbEntity
  8
寸法
  6
Continuous
 62
     0
100
AcDbLine
 10
61603.67516214319
 20
41603.78943549641
 30
0.0
 11
61603.67516214319
 21
41203.78943549642
 31
0.0
  0
MTEXT
  5
50E
330
4EB
100
AcDbEntity
  8
寸法
  6
Continuous
 62
     0
100
AcDbMText
 10
61988.97370198608
 20
40416.79877764502
 30
0.0
 40
400.0
 41
0.0
 71
     5
 72
     1
  1
\A1;1000
  7
寸法
 11
0.0000000000000001
 21
1.0
 31
0.0
 73
     1
 44
1.0
  0
INSERT
  5
50F
330
4EB
100
AcDbEntity
  8
寸法
  6
Continuous
 62
     0
100
AcDbBlockReference
  2
_Open30
 10
61603.67516214319
 20
39903.78943549643
 30
0.0
 41
300.0
 42
300.0
 43
300.0
 50
270.0
  0
INSERT
  5
510
330
4EB
100
AcDbEntity
  8
寸法
  6
Continuous
 62
     0
100
AcDbBlockReference
  2
_Open30
 10
61603.67516214319
 20
40903.78943549642
 30
0.0
 41
300.0
 42
300.0
 43
300.0
 50
90.0
  0
LINE
  5
511
330
4EB
100
AcDbEntity
  8
寸法
  6
Continuous
 62
     0
100
AcDbLine
 10
61603.67516214319
 20
40603.78943549642
 30
0.0
 11
61603.67516214319
 21
40203.78943549642
 31
0.0
  0
MTEXT
  5
512
330
4EB
100
AcDbEntity
  8
寸法
  6
Continuous
 62
     0
100
AcDbMText
 10
61303.67516214318
 20
39403.78943549643
 30
0.0
 40
400.0
 41
0.0
 71
     5
 72
     1
  1
\A1;1000
  7
寸法
 11
0.0000000000000001
 21
1.0
 31
0.0
 73
     1
 44
1.0
  0
INSERT
  5
513
330
4EB
100
AcDbEntity
  8
寸法
  6
Continuous
 62
     0
100
AcDbBlockReference
  2
_Open30
 10
61603.67516214319
 20
38903.78943549642
 30
0.0
 41
300.0
 42
300.0
 43
300.0
 50
270.0
  0
INSERT
  5
514
330
4EB
100
AcDbEntity
  8
寸法
  6
Continuous
 62
     0
100
AcDbBlockReference
  2
_Open30
 10
61603.67516214319
 20
39903.78943549643
 30
0.0
 41
300.0
 42
300.0
 43
300.0
 50
90.0
  0
LINE
  5
515
330
4EB
100
AcDbEntity
  8
寸法
  6
Continuous
 62
     0
100
AcDbLine
 10
61603.67516214319
 20
39603.78943549642
 30
0.0
 11
61603.67516214319
 21
39203.78943549642
 31
0.0
  0
MTEXT
  5
516
330
4EB
100
AcDbEntity
  8
寸法
  6
Continuous
 62
     0
100
AcDbMText
 10
61988.97370198608
 20
38416.79877764502
 30
0.0
 40
400.0
 41
0.0
 71
     5
 72
     1
  1
\A1;1000
  7
寸法
 11
0.0000000000000001
 21
1.0
 31
0.0
 73
     1
 44
1.0
  0
INSERT
  5
517
330
4EB
100
AcDbEntity
  8
寸法
  6
Continuous
 62
     0
100
AcDbBlockReference
  2
_Open30
 10
61603.67516214319
 20
37903.78943549642
 30
0.0
 41
300.0
 42
300.0
 43
300.0
 50
270.0
  0
INSERT
  5
518
330
4EB
100
AcDbEntity
  8
寸法
  6
Continuous
 62
     0
100
AcDbBlockReference
  2
_Open30
 10
61603.67516214319
 20
38903.78943549642
 30
0.0
 41
300.0
 42
300.0
 43
300.0
 50
90.0
  0
LINE
  5
519
330
4EB
100
AcDbEntity
  8
寸法
  6
Continuous
 62
     0
100
AcDbLine
 10
61603.67516214319
 20
38603.78943549642
 30
0.0
 11
61603.67516214319
 21
38203.78943549642
 31
0.0
  0
MTEXT
  5
51A
330
4EB
100
AcDbEntity
  8
寸法
  6
Continuous
 62
     0
100
AcDbMText
 10
61303.67516214318
 20
37403.78943549643
 30
0.0
 40
400.0
 41
0.0
 71
     5
 72
     1
  1
\A1;1000
  7
寸法
 11
0.0000000000000001
 21
1.0
 31
0.0
 73
     1
 44
1.0
  0
INSERT
  5
51B
330
4EB
100
AcDbEntity
  8
寸法
  6
Continuous
 62
     0
100
AcDbBlockReference
  2
_Open30
 10
61603.67516214319
 20
36903.78943549642
 30
0.0
 41
300.0
 42
300.0
 43
300.0
 50
270.0
  0
INSERT
  5
51C
330
4EB
100
AcDbEntity
  8
寸法
  6
Continuous
 62
     0
100
AcDbBlockReference
  2
_Open30
 10
61603.67516214319
 20
37903.78943549642
 30
0.0
 41
300.0
 42
300.0
 43
300.0
 50
90.0
  0
LINE
  5
51D
330
4EB
100
AcDbEntity
  8
寸法
  6
Continuous
 62
     0
100
AcDbLine
 10
61603.67516214319
 20
37603.78943549643
 30
0.0
 11
61603.67516214319
 21
37203.78943549643
 31
0.0
  0
MTEXT
  5
51E
330
4EB
100
AcDbEntity
  8
寸法
  6
Continuous
 62
     0
100
AcDbMText
 10
61988.97370198608
 20
36416.79877764503
 30
0.0
 40
400.0
 41
0.0
 71
     5
 72
     1
  1
\A1;1000
  7
寸法
 11
0.0000000000000001
 21
1.0
 31
0.0
 73
     1
 44
1.0
  0
INSERT
  5
51F
330
4EB
100
AcDbEntity
  8
寸法
  6
Continuous
 62
     0
100
AcDbBlockReference
  2
_Open30
 10
61603.67516214319
 20
35903.78943549642
 30
0.0
 41
300.0
 42
300.0
 43
300.0
 50
270.0
  0
INSERT
  5
520
330
4EB
100
AcDbEntity
  8
寸法
  6
Continuous
 62
     0
100
AcDbBlockReference
  2
_Open30
 10
61603.67516214319
 20
36903.78943549642
 30
0.0
 41
300.0
 42
300.0
 43
300.0
 50
90.0
  0
LINE
  5
521
330
4EB
100
AcDbEntity
  8
寸法
  6
Continuous
 62
     0
100
AcDbLine
 10
61603.67516214319
 20
36603.78943549642
 30
0.0
 11
61603.67516214319
 21
36203.78943549642
 31
0.0
  0
MTEXT
  5
522
330
4EB
100
AcDbEntity
  8
寸法
  6
Continuous
 62
     0
100
AcDbMText
 10
61303.67516214318
 20
35403.78943549643
 30
0.0
 40
400.0
 41
0.0
 71
     5
 72
     1
  1
\A1;1000
  7
寸法
 11
0.0000000000000001
 21
1.0
 31
0.0
 73
     1
 44
1.0
  0
INSERT
  5
523
330
4EB
100
AcDbEntity
  8
寸法
  6
Continuous
 62
     0
100
AcDbBlockReference
  2
_Open30
 10
61603.67516214319
 20
34903.78943549643
 30
0.0
 41
300.0
 42
300.0
 43
300.0
 50
270.0
  0
INSERT
  5
524
330
4EB
100
AcDbEntity
  8
寸法
  6
Continuous
 62
     0
100
AcDbBlockReference
  2
_Open30
 10
61603.67516214319
 20
35903.78943549642
 30
0.0
 41
300.0
 42
300.0
 43
300.0
 50
90.0
  0
LINE
  5
525
330
4EB
100
AcDbEntity
  8
寸法
  6
Continuous
 62
     0
100
AcDbLine
 10
61603.67516214319
 20
35603.78943549642
 30
0.0
 11
61603.67516214319
 21
35203.78943549642
 31
0.0
  0
ENDBLK
  5
526
330
4EB
100
AcDbEntity
  8
0
 62
     0
100
AcDbBlockEnd
  0
ENDSEC
  0
SECTION
  2
ENTITIES
  0
LINE
  5
6C
330
20
100
AcDbEntity
  8
5
  6
ITTEN100
 62
     1
100
AcDbLine
 10
90944.55197908237
 20
52893.94565061916
 30
0.0
 11
90808.37666666667
 21
52893.94565061916
 31
0.0
  0
LINE
  5
70
330
20
100
AcDbEntity
  8
5
  6
CENTERX2
100
AcDbLine
 10
37749.75978292975
 20
49295.35624343994
 30
0.0
 11
37749.75978292975
 21
10195.31985599717
 31
0.0
  0
LINE
  5
71
330
20
100
AcDbEntity
  8
5
  6
CENTERX2
100
AcDbLine
 10
20049.75976158906
 20
49295.35624252499
 30
0.0
 11
20049.75976158906
 21
10185.30205622881
 31
0.0
  0
LINE
  5
B7
330
20
100
AcDbEntity
  8
5
  6
CENTERX2
100
AcDbLine
 10
69957.02978761294
 20
44872.18030351683
 30
0.0
 11
15524.24352954382
 21
44872.18030351683
 31
0.0
  0
LINE
  5
C7
330
20
100
AcDbEntity
  8
3
  6
Continuous
 62
     7
100
AcDbLine
 10
17506.90429994264
 20
24316.38421251751
 30
0.0
 11
18306.9043009072
 21
24316.38421251751
 31
0.0
  0
ARC
  5
C8
330
20
100
AcDbEntity
  8
3
  6
Continuous
 62
     7
100
AcDbCircle
 10
18306.9043009072
 20
24316.38421251751
 30
0.0
 40
800.0000009645502
100
AcDbArc
 50
90.0
 51
180.0
  0
ARC
  5
C9
330
20
100
AcDbEntity
  8
3
  6
Continuous
 62
     7
100
AcDbCircle
 10
19853.8573784446
 20
24316.38421251751
 30
0.0
 40
800.0000009645502
100
AcDbArc
 50
90.0
 51
180.0
  0
LINE
  5
CA
330
20
100
AcDbEntity
  8
3
  6
Continuous
 62
     7
100
AcDbLine
 10
19053.85737748006
 20
24316.38421251751
 30
0.0
 11
19853.8573784446
 21
24316.38421251751
 31
0.0
  0
LINE
  5
CB
330
20
100
AcDbEntity
  8
3
  6
Continuous
 62
     7
100
AcDbLine
 10
18506.90430114836
 20
24041.38421251751
 30
0.0
 11
19853.8573784446
 21
24041.38421251751
 31
0.0
  0
LINE
  5
CC
330
20
100
AcDbEntity
  8
3
  6
Continuous
 62
     7
100
AcDbLine
 10
18306.90430090723
 20
23841.38421251751
 30
0.0
 11
19853.8573784446
 21
23841.38421251751
 31
0.0
  0
LINE
  5
CD
330
20
100
AcDbEntity
  8
3
  6
Continuous
 62
     7
100
AcDbLine
 10
18306.90430090723
 20
26391.3842144466
 30
0.0
 11
19853.8573784446
 21
26391.3842144466
 31
0.0
  0
LINE
  5
CE
330
20
100
AcDbEntity
  8
3
  6
Continuous
 62
     7
100
AcDbLine
 10
18506.90430114836
 20
26191.3842144466
 30
0.0
 11
19853.8573784446
 21
26191.3842144466
 31
0.0
  0
ARC
  5
CF
330
20
100
AcDbEntity
  8
3
  6
Continuous
 62
     7
100
AcDbCircle
 10
25508.06190955465
 20
33972.18029037488
 30
0.0
 40
750.0000009042659
100
AcDbArc
 50
180.0
 51
270.0
  0
LINE
  5
D0
330
20
100
AcDbEntity
  8
3
  6
Continuous
 62
     7
100
AcDbLine
 10
25508.06190955465
 20
33222.1802894706
 30
0.0
 11
25508.06190955465
 21
33972.18029037488
 31
0.0
  0
ARC
  5
D1
330
20
100
AcDbEntity
  8
3
  6
Continuous
 62
     7
100
AcDbCircle
 10
33688.72807209876
 20
39847.02851682205
 30
0.0
 40
750.0000009042659
100
AcDbArc
 50
90.0
 51
180.0
  0
ARC
  5
D2
330
20
100
AcDbEntity
  8
3
  6
Continuous
 62
     7
100
AcDbCircle
 10
49563.7646790142
 20
39847.02851682205
 30
0.0
 40
750.0000009042659
100
AcDbArc
 50
90.0
 51
180.0
  0
ARC
  5
D3
330
20
100
AcDbEntity
  8
3
  6
Continuous
 62
     7
100
AcDbCircle
 10
40882.06672338042
 20
39847.02851682205
 30
0.0
 40
750.0000009042659
100
AcDbArc
 50
90.0
 51
180.0
  0
ARC
  5
D4
330
20
100
AcDbEntity
  8
3
  6
Continuous
 62
     7
100
AcDbCircle
 10
38549.75978389431
 20
37672.18029483594
 30
0.0
 40
750.0000009042659
100
AcDbArc
 50
270.0
 51
0.0
  0
LINE
  5
D5
330
20
100
AcDbEntity
  8
3
  6
Continuous
 62
     7
100
AcDbLine
 10
38549.75978389431
 20
36922.18029393168
 30
0.0
 11
38549.75978389431
 21
37672.18029483594
 31
0.0
  0
ARC
  5
D6
330
20
100
AcDbEntity
  8
3
  6
Continuous
 62
     7
100
AcDbCircle
 10
44711.36779175615
 20
39847.02851682205
 30
0.0
 40
750.0000009042659
100
AcDbArc
 50
90.0
 51
180.0
  0
ARC
  5
D7
330
20
100
AcDbEntity
  8
3
  6
Continuous
 62
     7
100
AcDbCircle
 10
45299.75979203269
 20
37872.18029507704
 30
0.0
 40
750.0000009042659
100
AcDbArc
 50
0.0
 51
90.0
  0
LINE
  5
D8
330
20
100
AcDbEntity
  8
3
  6
Continuous
 62
     7
100
AcDbLine
 10
45299.75979203269
 20
38622.18029598134
 30
0.0
 11
45299.75979203269
 21
37872.18029507704
 31
0.0
  0
ARC
  5
D9
330
20
100
AcDbEntity
  8
3
  6
Continuous
 62
     7
100
AcDbCircle
 10
54726.50452059895
 20
39847.02851682205
 30
0.0
 40
750.0000009042659
100
AcDbArc
 50
0.0
 51
90.0
  0
ARC
  5
DA
330
20
100
AcDbEntity
  8
3
  6
Continuous
 62
     7
100
AcDbCircle
 10
56107.35031935092
 20
39847.02851682205
 30
0.0
 40
750.0000009042659
100
AcDbArc
 50
0.0
 51
90.0
  0
ARC
  5
DB
330
20
100
AcDbEntity
  8
3
  6
Continuous
 62
     7
100
AcDbCircle
 10
59649.75980933441
 20
44313.52106645655
 30
0.0
 40
750.0000009042659
100
AcDbArc
 50
270.0
 51
0.0
  0
LINE
  5
DC
330
20
100
AcDbEntity
  8
1
  6
Continuous
 62
     7
100
AcDbLine
 10
64768.59308141095
 20
45172.18030387853
 30
0.0
 11
64768.59308141097
 21
42172.18030387853
 31
0.0
  0
LINE
  5
DD
330
20
100
AcDbEntity
  8
1
  6
Continuous
 62
     7
100
AcDbLine
 10
59649.75980933441
 20
45172.18030387853
 30
0.0
 11
59649.75980933441
 21
44572.18030315514
 31
0.0
  0
LINE
  5
DE
330
20
100
AcDbEntity
  8
1
  6
Continuous
 62
     7
100
AcDbLine
 10
61768.59308141097
 20
45172.18030387853
 30
0.0
 11
61768.59308141097
 21
42172.18030387853
 31
0.0
  0
LINE
  5
DF
330
20
100
AcDbEntity
  8
1
  6
Continuous
 62
     7
100
AcDbLine
 10
19749.75976122743
 20
44562.16250338673
 30
0.0
 11
19749.75976122739
 21
45162.16250411003
 31
0.0
  0
LINE
  5
E0
330
20
100
AcDbEntity
  8
1
  6
Continuous
 62
     7
100
AcDbLine
 10
18806.90430090723
 20
46105.01796443023
 30
0.0
 11
18806.90430090723
 21
26391.3842144466
 31
0.0
  0
LINE
  5
E1
330
20
100
AcDbEntity
  8
1
  6
Continuous
 62
     7
100
AcDbLine
 10
18306.9043009072
 20
30126.34160991611
 30
0.0
 11
18306.9043009072
 21
46605.01796443023
 31
0.0
  0
LINE
  5
E2
330
20
100
AcDbEntity
  8
1
  6
Continuous
 62
     7
100
AcDbLine
 10
37449.75978256809
 20
44870.18030351443
 30
0.0
 11
34453.97709065693
 21
44870.18030351443
 31
0.0
  0
LINE
  5
E3
330
20
100
AcDbEntity
  8
1
  6
Continuous
 62
     7
100
AcDbLine
 10
34449.75977895099
 20
37872.18029507704
 30
0.0
 11
37449.75978256805
 21
37872.18029507704
 31
0.0
  0
LINE
  5
E4
330
20
100
AcDbEntity
  8
1
  6
Continuous
 62
     7
100
AcDbLine
 10
34449.75977895099
 20
37672.18029483594
 30
0.0
 11
37449.75978256805
 21
37672.18029483585
 31
0.0
  0
LINE
  5
E5
330
20
100
AcDbEntity
  8
1
  6
Continuous
 62
     7
100
AcDbLine
 10
50099.75979782002
 20
14839.3426078797
 30
0.0
 11
34149.75977858919
 21
14839.3426078797
 31
0.0
  0
LINE
  5
E6
330
20
100
AcDbEntity
  8
1
  6
Continuous
 62
     7
100
AcDbLine
 10
34049.75977846871
 20
26972.18028193498
 30
0.0
 11
34049.75977846871
 21
30172.18028579326
 31
0.0
  0
LINE
  5
E7
330
20
100
AcDbEntity
  8
1
  6
Continuous
 62
     7
100
AcDbLine
 10
34249.75977870984
 20
23572.18027783573
 30
0.0
 11
34249.75977870984
 21
30172.18028579326
 31
0.0
  0
LINE
  5
E8
330
20
100
AcDbEntity
  8
1
  6
Continuous
 62
     7
100
AcDbLine
 10
29353.75267687322
 20
26972.18028193501
 30
0.0
 11
29353.75267687322
 21
30372.1802860344
 31
0.0
  0
LINE
  5
E9
330
20
100
AcDbEntity
  8
1
  6
Continuous
 62
     7
100
AcDbLine
 10
27151.85738724372
 20
23562.16247806731
 30
0.0
 11
27151.85738724372
 21
30162.16248602488
 31
0.0
  0
LINE
  5
EA
330
20
100
AcDbEntity
  8
1
  6
Continuous
 62
     7
100
AcDbLine
 10
27351.85738748488
 20
23562.16247806734
 30
0.0
 11
27351.85738748488
 21
30162.16248602491
 31
0.0
  0
LINE
  5
EB
330
20
100
AcDbEntity
  8
1
  6
Continuous
 62
     7
100
AcDbLine
 10
19853.85737844461
 20
25916.3842144466
 30
0.0
 11
19853.85737844461
 21
30162.16248602488
 31
0.0
  0
LINE
  5
EC
330
20
100
AcDbEntity
  8
1
  6
Continuous
 62
     7
100
AcDbLine
 10
20053.85737868577
 20
25916.3842144466
 30
0.0
 11
20053.85737868577
 21
30162.16248602488
 31
0.0
  0
LINE
  5
ED
330
20
100
AcDbEntity
  8
1
  6
Continuous
 62
     7
100
AcDbLine
 10
18306.90430090723
 20
29326.34160895154
 30
0.0
 11
18306.90430090723
 21
25916.3842144466
 31
0.0
  0
LINE
  5
EE
330
20
100
AcDbEntity
  8
1
  6
Continuous
 62
     7
100
AcDbLine
 10
29153.75267663207
 20
26972.18028193501
 30
0.0
 11
29153.75267663207
 21
35272.18029194229
 31
0.0
  0
LINE
  5
EF
330
20
100
AcDbEntity
  8
1
  6
Continuous
 62
     7
100
AcDbLine
 10
20349.75976195083
 20
23372.1802775946
 30
0.0
 11
26949.75976990837
 21
23372.1802775946
 31
0.0
  0
LINE
  5
F0
330
20
100
AcDbEntity
  8
1
  6
Continuous
 62
     7
100
AcDbLine
 10
20349.75976195083
 20
23172.18027735345
 30
0.0
 11
26949.75976990837
 21
23172.18027735345
 31
0.0
  0
LINE
  5
F1
330
20
100
AcDbEntity
  8
1
  6
Continuous
 62
     7
100
AcDbLine
 10
26949.75976990837
 20
16172.18026891363
 30
0.0
 11
20349.75976195083
 21
16172.18026891363
 31
0.0
  0
LINE
  5
F2
330
20
100
AcDbEntity
  8
1
  6
Continuous
 62
     7
100
AcDbLine
 10
26949.75976990837
 20
15972.1802686725
 30
0.0
 11
20349.75976195083
 21
15972.1802686725
 31
0.0
  0
LINE
  5
F3
330
20
100
AcDbEntity
  8
1
  6
Continuous
 62
     7
100
AcDbLine
 10
31549.75977605734
 20
14839.3426078797
 30
0.0
 11
20349.75976195083
 21
14839.3426078797
 31
0.0
  0
LINE
  5
F4
330
20
100
AcDbEntity
  8
1
  6
Continuous
 62
     7
100
AcDbLine
 10
19853.85737844461
 20
16362.16246938636
 30
0.0
 11
19853.85737844461
 21
22962.16247734394
 31
0.0
  0
LINE
  5
F5
330
20
100
AcDbEntity
  8
1
  6
Continuous
 62
     7
100
AcDbLine
 10
20053.85737868577
 20
16362.16246938639
 30
0.0
 11
20053.85737868577
 21
22962.16247734398
 31
0.0
  0
LINE
  5
F6
330
20
100
AcDbEntity
  8
1
  6
Continuous
 62
     7
100
AcDbLine
 10
18306.90430090723
 20
22816.38421251751
 30
0.0
 11
18306.90430090723
 21
13972.18026746682
 31
0.0
  0
LINE
  5
F7
330
20
100
AcDbEntity
  8
1
  6
Continuous
 62
     7
100
AcDbLine
 10
20349.75976195083
 20
15972.1802686725
 30
0.0
 11
20349.75976195083
 21
15762.16246866296
 31
0.0
  0
LINE
  5
F8
330
20
100
AcDbEntity
  8
1
  6
Continuous
 62
     7
100
AcDbLine
 10
19749.75976122743
 20
15762.16246866296
 30
0.0
 11
19749.75976122739
 21
16362.1624693863
 31
0.0
  0
LINE
  5
F9
330
20
100
AcDbEntity
  8
1
  6
Continuous
 62
     7
100
AcDbLine
 10
20349.75976195083
 20
13972.18026746682
 30
0.0
 11
18306.90430090723
 21
13972.18026746682
 31
0.0
  0
LINE
  5
FA
330
20
100
AcDbEntity
  8
1
  6
Continuous
 62
     7
100
AcDbLine
 10
20349.75976195083
 20
15762.16246866296
 30
0.0
 11
19749.75976122743
 21
15762.16246866296
 31
0.0
  0
LINE
  5
FB
330
20
100
AcDbEntity
  8
1
  6
Continuous
 62
     7
100
AcDbLine
 10
20349.75976195083
 20
14839.3426078797
 30
0.0
 11
19426.9399011676
 21
14839.3426078797
 31
0.0
  0
LINE
  5
FC
330
20
100
AcDbEntity
  8
1
  6
Continuous
 62
     7
100
AcDbLine
 10
20349.75976195083
 20
14839.3426078797
 30
0.0
 11
20349.75976195083
 21
13972.18026746682
 31
0.0
  0
LINE
  5
FD
330
20
100
AcDbEntity
  8
1
  6
Continuous
 62
     7
100
AcDbLine
 10
20053.85737868577
 20
16362.16246938639
 30
0.0
 11
20349.75976195083
 21
16362.16246938639
 31
0.0
  0
LINE
  5
FE
330
20
100
AcDbEntity
  8
1
  6
Continuous
 62
     7
100
AcDbLine
 10
19749.75976122739
 20
16362.1624693863
 30
0.0
 11
19853.85737844461
 21
16362.16246938636
 31
0.0
  0
LINE
  5
FF
330
20
100
AcDbEntity
  8
1
  6
Continuous
 62
     7
100
AcDbLine
 10
20349.75976195083
 20
16362.16246938639
 30
0.0
 11
20349.75976195083
 21
16172.18026891363
 31
0.0
  0
INSERT
  5
100
330
20
100
AcDbEntity
  8
1
100
AcDbBlockReference
  2
-000-DOOR_S
 10
18306.9043009072
 20
25916.3842144466
 30
0.0
 41
1600.0000019291
 42
1600.0000019291
 50
270.0
  0
LINE
  5
101
330
20
100
AcDbEntity
  8
1
  6
Continuous
 62
     7
100
AcDbLine
 10
18306.90430090723
 20
26916.3842144466
 30
0.0
 11
16806.90430090723
 21
26916.3842144466
 31
0.0
  0
LINE
  5
102
330
20
100
AcDbEntity
  8
1
  6
Continuous
 62
     7
100
AcDbLine
 10
18306.90430090723
 20
22816.38421251754
 30
0.0
 11
16806.90430090723
 21
22816.38421251751
 31
0.0
  0
LINE
  5
103
330
20
100
AcDbEntity
  8
1
  6
Continuous
 62
     7
100
AcDbLine
 10
18202.80668369
 20
24316.38421251741
 30
0.0
 11
18306.90430090723
 21
24316.38421251745
 31
0.0
  0
LINE
  5
104
330
20
100
AcDbEntity
  8
1
  6
Continuous
 62
     7
100
AcDbLine
 10
18306.9043009072
 20
24316.38421251751
 30
0.0
 11
18506.90430114838
 21
24316.38421251751
 31
0.0
  0
LINE
  5
105
330
20
100
AcDbEntity
  8
1
  6
Continuous
 62
     7
100
AcDbLine
 10
18506.90430114836
 20
24041.38421251751
 30
0.0
 11
18506.90430114838
 21
24316.38421251751
 31
0.0
  0
LINE
  5
106
330
20
100
AcDbEntity
  8
1
  6
Continuous
 62
     7
100
AcDbLine
 10
18306.90430090723
 20
24316.38421251751
 30
0.0
 11
18306.90430090723
 21
23841.38421251751
 31
0.0
  0
LINE
  5
107
330
20
100
AcDbEntity
  8
1
  6
Continuous
 62
     7
100
AcDbLine
 10
19749.75976122739
 20
24316.38421251741
 30
0.0
 11
19853.85737844461
 21
24316.38421251745
 31
0.0
  0
LINE
  5
108
330
20
100
AcDbEntity
  8
1
  6
Continuous
 62
     7
100
AcDbLine
 10
19853.8573784446
 20
24316.38421251751
 30
0.0
 11
20053.85737868577
 21
24316.38421251751
 31
0.0
  0
LINE
  5
109
330
20
100
AcDbEntity
  8
1
  6
Continuous
 62
     7
100
AcDbLine
 10
19853.85737844461
 20
22962.16247734394
 30
0.0
 11
19749.75976122743
 21
22962.16247734394
 31
0.0
  0
LINE
  5
10A
330
20
100
AcDbEntity
  8
1
  6
Continuous
 62
     7
100
AcDbLine
 10
20349.75976195083
 20
22962.16247734394
 30
0.0
 11
20053.85737868577
 21
22962.16247734398
 31
0.0
  0
LINE
  5
10B
330
20
100
AcDbEntity
  8
1
  6
Continuous
 62
     7
100
AcDbLine
 10
19749.75976122743
 20
22962.16247734394
 30
0.0
 11
19749.75976122739
 21
23562.1624780674
 31
0.0
  0
LINE
  5
10C
330
20
100
AcDbEntity
  8
1
  6
Continuous
 62
     7
100
AcDbLine
 10
19749.75976122739
 20
23562.1624780674
 30
0.0
 11
19853.85737844461
 21
23562.1624780674
 31
0.0
  0
LINE
  5
10D
330
20
100
AcDbEntity
  8
1
  6
Continuous
 62
     7
100
AcDbLine
 10
20349.75976195083
 20
23562.16247806734
 30
0.0
 11
20349.75976195083
 21
23372.1802775946
 31
0.0
  0
LINE
  5
10E
330
20
100
AcDbEntity
  8
1
  6
Continuous
 62
     7
100
AcDbLine
 10
20349.75976195083
 20
23172.18027735345
 30
0.0
 11
20349.75976195083
 21
22962.16247734394
 31
0.0
  0
LINE
  5
10F
330
20
100
AcDbEntity
  8
1
  6
Continuous
 62
     7
100
AcDbLine
 10
20053.85737868577
 20
23562.16247806737
 30
0.0
 11
20349.75976195083
 21
23562.16247806734
 31
0.0
  0
LINE
  5
110
330
20
100
AcDbEntity
  8
1
  6
Continuous
 62
     7
100
AcDbLine
 10
19853.85737844461
 20
23562.16247806731
 30
0.0
 11
19853.85737844461
 21
24316.38421251751
 31
0.0
  0
LINE
  5
111
330
20
100
AcDbEntity
  8
1
  6
Continuous
 62
     7
100
AcDbLine
 10
20053.85737868577
 20
23562.16247806737
 30
0.0
 11
20053.85737868577
 21
24316.38421251751
 31
0.0
  0
LINE
  5
112
330
20
100
AcDbEntity
  8
1
  6
Continuous
 62
     7
100
AcDbLine
 10
18306.9043009072
 20
25916.3842144466
 30
0.0
 11
18506.90430114836
 21
25916.3842144466
 31
0.0
  0
LINE
  5
113
330
20
100
AcDbEntity
  8
1
  6
Continuous
 62
     7
100
AcDbLine
 10
18506.90430114836
 20
26191.3842144466
 30
0.0
 11
18506.90430114838
 21
25916.3842144466
 31
0.0
  0
LINE
  5
114
330
20
100
AcDbEntity
  8
1
  6
Continuous
 62
     7
100
AcDbLine
 10
19853.8573784446
 20
25916.3842144466
 30
0.0
 11
20053.85737868575
 21
25916.3842144466
 31
0.0
  0
LINE
  5
115
330
20
100
AcDbEntity
  8
1
  6
Continuous
 62
     7
100
AcDbLine
 10
34249.75977870984
 20
16372.18026915478
 30
0.0
 11
34249.75977870984
 21
22972.18027711233
 31
0.0
  0
LINE
  5
116
330
20
100
AcDbEntity
  8
1
  6
Continuous
 62
     7
100
AcDbLine
 10
34049.75977846871
 20
16372.18026915478
 30
0.0
 11
34049.75977846871
 21
22972.18027711233
 31
0.0
  0
LINE
  5
117
330
20
100
AcDbEntity
  8
1
  6
Continuous
 62
     7
100
AcDbLine
 10
32049.75977605734
 20
15962.16246890412
 30
0.0
 11
27549.75977063177
 21
15962.16246890412
 31
0.0
  0
LINE
  5
118
330
20
100
AcDbEntity
  8
1
  6
Continuous
 62
     7
100
AcDbLine
 10
32049.75977605734
 20
16172.18026891363
 30
0.0
 11
27549.75977063177
 21
16172.18026891363
 31
0.0
  0
LINE
  5
119
330
20
100
AcDbEntity
  8
1
  6
Continuous
 62
     7
100
AcDbLine
 10
27549.75977063177
 20
15762.16246866296
 30
0.0
 11
26949.75976990837
 21
15762.16246866296
 31
0.0
  0
LINE
  5
11A
330
20
100
AcDbEntity
  8
1
  6
Continuous
 62
     7
100
AcDbLine
 10
26949.75976990837
 20
16362.1624693863
 30
0.0
 11
27549.75977063177
 21
16362.16246938639
 31
0.0
  0
LINE
  5
11B
330
20
100
AcDbEntity
  8
1
  6
Continuous
 62
     7
100
AcDbLine
 10
26949.75976990837
 20
15762.16246866296
 30
0.0
 11
26949.75976990837
 21
15972.1802686725
 31
0.0
  0
LINE
  5
11C
330
20
100
AcDbEntity
  8
1
  6
Continuous
 62
     7
100
AcDbLine
 10
26949.75976990837
 20
16172.18026891363
 30
0.0
 11
26949.75976990837
 21
16362.1624693863
 31
0.0
  0
LINE
  5
11D
330
20
100
AcDbEntity
  8
1
  6
Continuous
 62
     7
100
AcDbLine
 10
27549.75977063177
 20
15962.16246890412
 30
0.0
 11
27549.75977063177
 21
15762.16246866296
 31
0.0
  0
LINE
  5
11E
330
20
100
AcDbEntity
  8
1
  6
Continuous
 62
     7
100
AcDbLine
 10
27549.75977063177
 20
16362.16246938639
 30
0.0
 11
27549.75977063177
 21
16172.18026891363
 31
0.0
  0
LINE
  5
11F
330
20
100
AcDbEntity
  8
1
  6
Continuous
 62
     7
100
AcDbLine
 10
34149.75977858919
 20
13972.18026746682
 30
0.0
 11
31549.75977605734
 21
13972.18026746682
 31
0.0
  0
LINE
  5
120
330
20
100
AcDbEntity
  8
1
  6
Continuous
 62
     7
100
AcDbLine
 10
32049.75977605734
 20
15772.18026843135
 30
0.0
 11
32049.75977605734
 21
16172.18026891363
 31
0.0
  0
LINE
  5
121
330
20
100
AcDbEntity
  8
1
  6
Continuous
 62
     7
100
AcDbLine
 10
31549.75977605734
 20
14839.3426078797
 30
0.0
 11
31549.75977605734
 21
13972.18026746682
 31
0.0
  0
LINE
  5
122
330
20
100
AcDbEntity
  8
1
  6
Continuous
 62
     7
100
AcDbLine
 10
34449.75977895099
 20
15772.18026843135
 30
0.0
 11
34449.75977895099
 21
16372.18026915478
 31
0.0
  0
LINE
  5
123
330
20
100
AcDbEntity
  8
1
  6
Continuous
 62
     7
100
AcDbLine
 10
33649.75977798642
 20
15772.18026843135
 30
0.0
 11
33649.75977798642
 21
15972.1802686725
 31
0.0
  0
LINE
  5
124
330
20
100
AcDbEntity
  8
1
  6
Continuous
 62
     7
100
AcDbLine
 10
34449.75977895099
 20
15772.18026843135
 30
0.0
 11
34449.75977895099
 21
16372.18026843135
 31
0.0
  0
LINE
  5
125
330
20
100
AcDbEntity
  8
1
  6
Continuous
 62
     7
100
AcDbLine
 10
33849.75977822755
 20
15772.18026843135
 30
0.0
 11
33649.75977798642
 21
15772.18026843135
 31
0.0
  0
LINE
  5
126
330
20
100
AcDbEntity
  8
1
  6
Continuous
 62
     7
100
AcDbLine
 10
34149.75977858919
 20
14839.3426078797
 30
0.0
 11
34149.75977858919
 21
13972.18026746682
 31
0.0
  0
LINE
  5
127
330
20
100
AcDbEntity
  8
1
  6
Continuous
 62
     7
100
AcDbLine
 10
34449.75977895099
 20
15772.18026843135
 30
0.0
 11
33849.75977822755
 21
15772.18026843135
 31
0.0
  0
LINE
  5
128
330
20
100
AcDbEntity
  8
1
  6
Continuous
 62
     7
100
AcDbLine
 10
33849.75977822755
 20
16372.18026915478
 30
0.0
 11
34049.75977846871
 21
16372.18026915478
 31
0.0
  0
LINE
  5
129
330
20
100
AcDbEntity
  8
1
  6
Continuous
 62
     7
100
AcDbLine
 10
33849.75977822755
 20
15972.1802686725
 30
0.0
 11
33849.75977822755
 21
16372.18026915478
 31
0.0
  0
LINE
  5
12A
330
20
100
AcDbEntity
  8
1
  6
Continuous
 62
     7
100
AcDbLine
 10
33849.75977822755
 20
15972.1802686725
 30
0.0
 11
33649.75977798642
 21
15972.1802686725
 31
0.0
  0
LINE
  5
12B
330
20
100
AcDbEntity
  8
1
  6
Continuous
 62
     7
100
AcDbLine
 10
34249.75977870984
 20
16372.18026915478
 30
0.0
 11
34449.75977895099
 21
16372.18026915478
 31
0.0
  0
LINE
  5
12C
330
20
100
AcDbEntity
  8
1
  6
Continuous
 62
     7
100
AcDbLine
 10
33849.75977895099
 20
15972.18026843135
 30
0.0
 11
33849.75977895099
 21
16372.18026843135
 31
0.0
  0
LINE
  5
12D
330
20
100
AcDbEntity
  8
1
  6
Continuous
 62
     7
100
AcDbLine
 10
33849.75977895099
 20
16372.18026843135
 30
0.0
 11
34049.75977895099
 21
16372.18026843135
 31
0.0
  0
LINE
  5
12E
330
20
100
AcDbEntity
  8
1
  6
Continuous
 62
     7
100
AcDbLine
 10
34249.75977895099
 20
16372.18026843135
 30
0.0
 11
34449.75977895099
 21
16372.18026843135
 31
0.0
  0
LINE
  5
12F
330
20
100
AcDbEntity
  8
1
  6
Continuous
 62
     7
100
AcDbLine
 10
34049.75977846871
 20
26972.18028193498
 30
0.0
 11
29353.75267687322
 21
26972.18028193501
 31
0.0
  0
LINE
  5
130
330
20
100
AcDbEntity
  8
1
  6
Continuous
 62
     7
100
AcDbLine
 10
34049.75977846871
 20
26772.18028169388
 30
0.0
 11
29048.20645541034
 21
26772.18028169388
 31
0.0
  0
LINE
  5
131
330
20
100
AcDbEntity
  8
1
  6
Continuous
 62
     7
100
AcDbLine
 10
27549.75977063177
 20
22962.16247734394
 30
0.0
 11
26949.75976990837
 21
22962.16247734394
 31
0.0
  0
LINE
  5
132
330
20
100
AcDbEntity
  8
1
  6
Continuous
 62
     7
100
AcDbLine
 10
26949.75976990837
 20
23372.1802775946
 30
0.0
 11
26949.75976990837
 21
23562.16247806725
 31
0.0
  0
LINE
  5
133
330
20
100
AcDbEntity
  8
1
  6
Continuous
 62
     7
100
AcDbLine
 10
26949.75976990837
 20
23562.16247806725
 30
0.0
 11
27151.85738724372
 21
23562.16247806731
 31
0.0
  0
LINE
  5
134
330
20
100
AcDbEntity
  8
1
  6
Continuous
 62
     7
100
AcDbLine
 10
26949.75976990837
 20
22962.16247734394
 30
0.0
 11
26949.75976990837
 21
23172.18027735345
 31
0.0
  0
LINE
  5
135
330
20
100
AcDbEntity
  8
1
  6
Continuous
 62
     7
100
AcDbLine
 10
27549.75977063177
 20
23562.16247806734
 30
0.0
 11
27549.75977063177
 21
22962.16247734394
 31
0.0
  0
LINE
  5
136
330
20
100
AcDbEntity
  8
1
  6
Continuous
 62
     7
100
AcDbLine
 10
27351.85738748488
 20
23562.16247806734
 30
0.0
 11
27549.75977063177
 21
23562.16247806734
 31
0.0
  0
LINE
  5
137
330
20
100
AcDbEntity
  8
1
  6
Continuous
 62
     7
100
AcDbLine
 10
27448.20645348126
 20
26772.18028169388
 30
0.0
 11
27448.20645348126
 21
26972.18028193503
 31
0.0
  0
LINE
  5
138
330
20
100
AcDbEntity
  8
1
  6
Continuous
 62
     7
100
AcDbLine
 10
27448.20645348126
 20
26772.18028169391
 30
0.0
 11
27351.85738748488
 21
26772.18028169391
 31
0.0
  0
LINE
  5
139
330
20
100
AcDbEntity
  8
1
  6
Continuous
 62
     7
100
AcDbLine
 10
29048.20645541034
 20
26772.18028169388
 30
0.0
 11
29048.20645541034
 21
26972.18028193501
 31
0.0
  0
LINE
  5
13A
330
20
100
AcDbEntity
  8
1
  6
Continuous
 62
     7
100
AcDbLine
 10
34049.75977846871
 20
23572.18027783573
 30
0.0
 11
34049.75977846871
 21
26772.18028169388
 31
0.0
  0
LINE
  5
13B
330
20
100
AcDbEntity
  8
1
  6
Continuous
 62
     7
100
AcDbLine
 10
34449.75977895099
 20
22972.18027711233
 30
0.0
 11
34449.75977895099
 21
23572.18027783573
 31
0.0
  0
LINE
  5
13C
330
20
100
AcDbEntity
  8
1
  6
Continuous
 62
     7
100
AcDbLine
 10
33849.75977822755
 20
22972.18027711233
 30
0.0
 11
33849.75977822755
 21
23572.18027783573
 31
0.0
  0
LINE
  5
13D
330
20
100
AcDbEntity
  8
1
  6
Continuous
 62
     7
100
AcDbLine
 10
33849.75977822755
 20
23572.18027783573
 30
0.0
 11
34049.75977846871
 21
23572.18027783573
 31
0.0
  0
LINE
  5
13E
330
20
100
AcDbEntity
  8
1
  6
Continuous
 62
     7
100
AcDbLine
 10
34049.75977846871
 20
22972.18027711233
 30
0.0
 11
33849.75977822755
 21
22972.18027711233
 31
0.0
  0
LINE
  5
13F
330
20
100
AcDbEntity
  8
1
  6
Continuous
 62
     7
100
AcDbLine
 10
34449.75977895099
 20
22972.18027711233
 30
0.0
 11
34249.75977870984
 21
22972.18027711233
 31
0.0
  0
LINE
  5
140
330
20
100
AcDbEntity
  8
1
  6
Continuous
 62
     7
100
AcDbLine
 10
34249.75977870984
 20
23572.18027783573
 30
0.0
 11
34449.75977895099
 21
23572.18027783573
 31
0.0
  0
LINE
  5
141
330
20
100
AcDbEntity
  8
1
  6
Continuous
 62
     7
100
AcDbLine
 10
20349.75976195083
 20
44870.18030351443
 30
0.0
 11
26949.75976990837
 21
44870.18030351443
 31
0.0
  0
LINE
  5
142
330
20
100
AcDbEntity
  8
1
  6
Continuous
 62
     7
100
AcDbLine
 10
20053.85737868577
 20
33972.18029037488
 30
0.0
 11
24758.0619086504
 21
33972.18029037488
 31
0.0
  0
LINE
  5
143
330
20
100
AcDbEntity
  8
1
  6
Continuous
 62
     7
100
AcDbLine
 10
20053.85737868577
 20
34172.18029061604
 30
0.0
 11
24758.0619086504
 21
34172.18029061604
 31
0.0
  0
LINE
  5
144
330
20
100
AcDbEntity
  8
1
  6
Continuous
 62
     7
100
AcDbLine
 10
20349.75976195083
 20
37772.18029495644
 30
0.0
 11
26949.75976990837
 21
37772.18029495644
 31
0.0
  0
LINE
  5
145
330
20
100
AcDbEntity
  8
1
  6
Continuous
 62
     7
100
AcDbLine
 10
20349.75976195083
 20
37572.18029471544
 30
0.0
 11
26949.75976990837
 21
37572.18029471544
 31
0.0
  0
LINE
  5
146
330
20
100
AcDbEntity
  8
1
  6
Continuous
 62
     7
100
AcDbLine
 10
20053.85737868577
 20
34172.18029061604
 30
0.0
 11
20053.85737868577
 21
37362.16249470584
 31
0.0
  0
LINE
  5
147
330
20
100
AcDbEntity
  8
1
  6
Continuous
 62
     7
100
AcDbLine
 10
19853.85737844461
 20
30762.16248674824
 30
0.0
 11
19853.85737844461
 21
37362.16249470584
 31
0.0
  0
INSERT
  5
148
330
20
100
AcDbEntity
  8
1
100
AcDbBlockReference
  2
-000-DOOR_S
 10
18306.9043009072
 20
30126.34160991611
 30
0.0
 41
1600.0000019291
 42
1600.0000019291
 50
270.0
  0
LINE
  5
149
330
20
100
AcDbEntity
  8
1
  6
Continuous
 62
     7
100
AcDbLine
 10
20053.85737868577
 20
30762.16248674824
 30
0.0
 11
20053.85737868577
 21
33972.18029037488
 31
0.0
  0
LINE
  5
14A
330
20
100
AcDbEntity
  8
1
  6
Continuous
 62
     7
100
AcDbLine
 10
20053.85737868577
 20
30762.16248674828
 30
0.0
 11
20349.75976195083
 21
30762.16248674828
 31
0.0
  0
LINE
  5
14B
330
20
100
AcDbEntity
  8
1
  6
Continuous
 62
     7
100
AcDbLine
 10
19853.85737844461
 20
30162.16248602488
 30
0.0
 11
19749.75976122743
 21
30162.16248602488
 31
0.0
  0
LINE
  5
14C
330
20
100
AcDbEntity
  8
1
  6
Continuous
 62
     7
100
AcDbLine
 10
20349.75976195083
 20
30162.16248602488
 30
0.0
 11
20053.85737868577
 21
30162.16248602488
 31
0.0
  0
LINE
  5
14D
330
20
100
AcDbEntity
  8
1
  6
Continuous
 62
     7
100
AcDbLine
 10
20349.75976195083
 20
30762.16248674828
 30
0.0
 11
20349.75976195083
 21
30162.16248602488
 31
0.0
  0
LINE
  5
14E
330
20
100
AcDbEntity
  8
1
  6
Continuous
 62
     7
100
AcDbLine
 10
19749.75976122743
 20
30162.16248602488
 30
0.0
 11
19749.75976122739
 21
30762.1624867482
 31
0.0
  0
LINE
  5
14F
330
20
100
AcDbEntity
  8
1
  6
Continuous
 62
     7
100
AcDbLine
 10
19853.85737844461
 20
37962.16249542923
 30
0.0
 11
19853.85737844461
 21
44562.16250338673
 31
0.0
  0
LINE
  5
150
330
20
100
AcDbEntity
  8
1
  6
Continuous
 62
     7
100
AcDbLine
 10
20053.85737868577
 20
37962.16249542923
 30
0.0
 11
20053.85737868577
 21
44562.16250338673
 31
0.0
  0
LINE
  5
151
330
20
100
AcDbEntity
  8
1
  6
Continuous
 62
     7
100
AcDbLine
 10
20053.85737868577
 20
37962.16249542923
 30
0.0
 11
20349.75976195083
 21
37962.16249542923
 31
0.0
  0
LINE
  5
152
330
20
100
AcDbEntity
  8
1
  6
Continuous
 62
     7
100
AcDbLine
 10
19749.75976122739
 20
37962.16249542913
 30
0.0
 11
19853.85737844461
 21
37962.16249542923
 31
0.0
  0
LINE
  5
153
330
20
100
AcDbEntity
  8
1
  6
Continuous
 62
     7
100
AcDbLine
 10
20349.75976195083
 20
37962.16249542923
 30
0.0
 11
20349.75976195083
 21
37772.18029495644
 31
0.0
  0
LINE
  5
154
330
20
100
AcDbEntity
  8
1
  6
Continuous
 62
     7
100
AcDbLine
 10
19853.85737844461
 20
37362.16249470584
 30
0.0
 11
19749.75976122743
 21
37362.16249470584
 31
0.0
  0
LINE
  5
155
330
20
100
AcDbEntity
  8
1
  6
Continuous
 62
     7
100
AcDbLine
 10
20349.75976195083
 20
37362.16249470584
 30
0.0
 11
20053.85737868577
 21
37362.16249470584
 31
0.0
  0
LINE
  5
156
330
20
100
AcDbEntity
  8
1
  6
Continuous
 62
     7
100
AcDbLine
 10
20349.75976195083
 20
37572.18029471544
 30
0.0
 11
20349.75976195083
 21
37362.16249470584
 31
0.0
  0
LINE
  5
157
330
20
100
AcDbEntity
  8
1
  6
Continuous
 62
     7
100
AcDbLine
 10
19749.75976122743
 20
37362.16249470584
 30
0.0
 11
19749.75976122739
 21
37962.16249542913
 31
0.0
  0
LINE
  5
158
330
20
100
AcDbEntity
  8
1
  6
Continuous
 62
     7
100
AcDbLine
 10
19853.85737844461
 20
44562.16250338673
 30
0.0
 11
19749.75976122743
 21
44562.16250338673
 31
0.0
  0
LINE
  5
159
330
20
100
AcDbEntity
  8
1
  6
Continuous
 62
     7
100
AcDbLine
 10
20349.75976195083
 20
44562.16250338673
 30
0.0
 11
20053.85737868577
 21
44562.16250338673
 31
0.0
  0
LINE
  5
15A
330
20
100
AcDbEntity
  8
1
  6
Continuous
 62
     7
100
AcDbLine
 10
20349.75976195083
 20
44870.18030351443
 30
0.0
 11
20349.75976195083
 21
44562.16250338673
 31
0.0
  0
LINE
  5
15B
330
20
100
AcDbEntity
  8
1
  6
Continuous
 62
     7
100
AcDbLine
 10
31766.18123032055
 20
37672.18029483585
 30
0.0
 11
31766.18123032055
 21
35272.18029194229
 31
0.0
  0
LINE
  5
15C
330
20
100
AcDbEntity
  8
1
  6
Continuous
 62
     7
100
AcDbLine
 10
31549.75977545448
 20
37872.18029507704
 30
0.0
 11
31549.75977545448
 21
35272.18029194229
 31
0.0
  0
LINE
  5
15D
330
20
100
AcDbEntity
  8
1
  6
Continuous
 62
     7
100
AcDbLine
 10
34049.75977846871
 20
32572.1802886869
 30
0.0
 11
34049.75977846871
 21
37372.18029447425
 31
0.0
  0
LINE
  5
15E
330
20
100
AcDbEntity
  8
1
  6
Continuous
 62
     7
100
AcDbLine
 10
34249.75977870984
 20
30772.18028651668
 30
0.0
 11
34249.75977870984
 21
37372.18029447425
 31
0.0
  0
LINE
  5
15F
330
20
100
AcDbEntity
  8
1
  6
Continuous
 62
     7
100
AcDbLine
 10
34049.75977846871
 20
32372.18028844574
 30
0.0
 11
29353.75267687322
 21
32372.18028844576
 31
0.0
  0
LINE
  5
160
330
20
100
AcDbEntity
  8
1
  6
Continuous
 62
     7
100
AcDbLine
 10
34049.75977846871
 20
32572.18028868686
 30
0.0
 11
29353.75267687322
 21
32572.18028868682
 31
0.0
  0
LINE
  5
161
330
20
100
AcDbEntity
  8
1
  6
Continuous
 62
     7
100
AcDbLine
 10
29153.75267663207
 20
35272.18029194229
 30
0.0
 11
34049.75977846871
 21
35272.18029194229
 31
0.0
  0
LINE
  5
162
330
20
100
AcDbEntity
  8
1
  6
Continuous
 62
     7
100
AcDbLine
 10
29353.75267687322
 20
35072.18029170112
 30
0.0
 11
34049.75977846871
 21
35072.18029170112
 31
0.0
  0
LINE
  5
163
330
20
100
AcDbEntity
  8
1
  6
Continuous
 62
     7
100
AcDbLine
 10
33849.75977822755
 20
30572.18028627551
 30
0.0
 11
29353.75267687322
 21
30572.18028627547
 31
0.0
  0
LINE
  5
164
330
20
100
AcDbEntity
  8
1
  6
Continuous
 62
     7
100
AcDbLine
 10
33849.75977822755
 20
30372.18028603437
 30
0.0
 11
29353.75267687322
 21
30372.1802860344
 31
0.0
  0
LINE
  5
165
330
20
100
AcDbEntity
  8
1
  6
Continuous
 62
     7
100
AcDbLine
 10
27351.85738748488
 20
30762.16248674828
 30
0.0
 11
27351.85738748488
 21
34880.7733029201
 31
0.0
  0
LINE
  5
166
330
20
100
AcDbEntity
  8
1
  6
Continuous
 62
     7
100
AcDbLine
 10
27151.85738724372
 20
30762.16248674824
 30
0.0
 11
27151.85738724372
 21
33972.18029037488
 31
0.0
  0
LINE
  5
167
330
20
100
AcDbEntity
  8
1
  6
Continuous
 62
     7
100
AcDbLine
 10
29353.75267687322
 20
30572.18028627547
 30
0.0
 11
29353.75267687322
 21
32372.18028844574
 31
0.0
  0
LINE
  5
168
330
20
100
AcDbEntity
  8
1
  6
Continuous
 62
     7
100
AcDbLine
 10
26949.75976990837
 20
30762.1624867482
 30
0.0
 11
27151.85738724372
 21
30762.16248674824
 31
0.0
  0
LINE
  5
169
330
20
100
AcDbEntity
  8
1
  6
Continuous
 62
     7
100
AcDbLine
 10
27151.85738724372
 20
30162.16248602488
 30
0.0
 11
26949.75976990837
 21
30162.16248602488
 31
0.0
  0
LINE
  5
16A
330
20
100
AcDbEntity
  8
1
  6
Continuous
 62
     7
100
AcDbLine
 10
26949.75976990837
 20
30162.16248602488
 30
0.0
 11
26949.75976990837
 21
30762.1624867482
 31
0.0
  0
LINE
  5
16B
330
20
100
AcDbEntity
  8
1
  6
Continuous
 62
     7
100
AcDbLine
 10
27351.85738748488
 20
30762.16248674828
 30
0.0
 11
27549.75977063177
 21
30762.16248674828
 31
0.0
  0
LINE
  5
16C
330
20
100
AcDbEntity
  8
1
  6
Continuous
 62
     7
100
AcDbLine
 10
27549.75977063177
 20
30162.16248602488
 30
0.0
 11
27351.85738748488
 21
30162.16248602488
 31
0.0
  0
LINE
  5
16D
330
20
100
AcDbEntity
  8
1
  6
Continuous
 62
     7
100
AcDbLine
 10
27549.75977063177
 20
30762.16248674828
 30
0.0
 11
27549.75977063177
 21
30162.16248602488
 31
0.0
  0
LINE
  5
16E
330
20
100
AcDbEntity
  8
1
  6
Continuous
 62
     7
100
AcDbLine
 10
25508.06190955468
 20
34172.18029061604
 30
0.0
 11
27151.85738724372
 21
34172.18029061604
 31
0.0
  0
LINE
  5
16F
330
20
100
AcDbEntity
  8
1
  6
Continuous
 62
     7
100
AcDbLine
 10
25508.06190955465
 20
33972.18029037488
 30
0.0
 11
27151.85738724372
 21
33972.18029037488
 31
0.0
  0
LINE
  5
170
330
20
100
AcDbEntity
  8
1
  6
Continuous
 62
     7
100
AcDbLine
 10
25508.06190955465
 20
33972.18029037488
 30
0.0
 11
25508.06190955465
 21
34172.18029061604
 31
0.0
  0
LINE
  5
171
330
20
100
AcDbEntity
  8
1
  6
Continuous
 62
     7
100
AcDbLine
 10
24758.0619086504
 20
33972.18029037488
 30
0.0
 11
24758.0619086504
 21
34172.18029061604
 31
0.0
  0
LINE
  5
172
330
20
100
AcDbEntity
  8
1
  6
Continuous
 62
     7
100
AcDbLine
 10
27151.85738724372
 20
34172.18029061604
 30
0.0
 11
27151.85738724372
 21
34880.7733029201
 31
0.0
  0
LINE
  5
173
330
20
100
AcDbEntity
  8
1
  6
Continuous
 62
     7
100
AcDbLine
 10
29353.75267687322
 20
32572.18028868686
 30
0.0
 11
29353.75267687322
 21
35072.18029170112
 31
0.0
  0
LINE
  5
174
330
20
100
AcDbEntity
  8
1
  6
Continuous
 62
     7
100
AcDbLine
 10
34049.75977846871
 20
30772.18028651668
 30
0.0
 11
34049.75977846871
 21
32372.18028844571
 31
0.0
  0
LINE
  5
175
330
20
100
AcDbEntity
  8
1
  6
Continuous
 62
     7
100
AcDbLine
 10
33849.75977822755
 20
30772.18028651668
 30
0.0
 11
34049.75977846871
 21
30772.18028651668
 31
0.0
  0
LINE
  5
176
330
20
100
AcDbEntity
  8
1
  6
Continuous
 62
     7
100
AcDbLine
 10
34249.75977870984
 20
30772.18028651668
 30
0.0
 11
34449.75977895099
 21
30772.18028651668
 31
0.0
  0
LINE
  5
177
330
20
100
AcDbEntity
  8
1
  6
Continuous
 62
     7
100
AcDbLine
 10
33849.75977822755
 20
30172.18028579326
 30
0.0
 11
33849.75977822755
 21
30372.18028603437
 31
0.0
  0
LINE
  5
178
330
20
100
AcDbEntity
  8
1
  6
Continuous
 62
     7
100
AcDbLine
 10
34049.75977846871
 20
30172.18028579326
 30
0.0
 11
33849.75977822755
 21
30172.18028579326
 31
0.0
  0
LINE
  5
179
330
20
100
AcDbEntity
  8
1
  6
Continuous
 62
     7
100
AcDbLine
 10
34449.75977895099
 20
30172.18028579326
 30
0.0
 11
34249.75977870984
 21
30172.18028579326
 31
0.0
  0
LINE
  5
17A
330
20
100
AcDbEntity
  8
1
  6
Continuous
 62
     7
100
AcDbLine
 10
34449.75977895099
 20
30172.18028579326
 30
0.0
 11
34449.75977895099
 21
30772.18028651668
 31
0.0
  0
LINE
  5
17B
330
20
100
AcDbEntity
  8
1
  6
Continuous
 62
     7
100
AcDbLine
 10
33849.75977822755
 20
30572.18028627551
 30
0.0
 11
33849.75977822755
 21
30772.18028651668
 31
0.0
  0
LINE
  5
17C
330
20
100
AcDbEntity
  8
1
  6
Continuous
 62
     7
100
AcDbLine
 10
27549.75977063177
 20
44870.18030351443
 30
0.0
 11
31953.97708764275
 21
44870.18030351443
 31
0.0
  0
LINE
  5
17D
330
20
100
AcDbEntity
  8
1
  6
Continuous
 62
     7
100
AcDbLine
 10
30147.34685779824
 20
39647.02851658125
 30
0.0
 11
32938.7280711945
 21
39647.02851658114
 31
0.0
  0
LINE
  5
17E
330
20
100
AcDbEntity
  8
1
  6
Continuous
 62
     7
100
AcDbLine
 10
30147.34685779821
 20
39847.02851682234
 30
0.0
 11
31953.97708764271
 21
39847.02851682234
 31
0.0
  0
LINE
  5
17F
330
20
100
AcDbEntity
  8
1
  6
Continuous
 62
     7
100
AcDbLine
 10
27151.85738724372
 20
38197.64421417714
 30
0.0
 11
27351.85738748488
 21
38197.64421417714
 31
0.0
  0
LINE
  5
180
330
20
100
AcDbEntity
  8
1
  6
Continuous
 62
     7
100
AcDbLine
 10
27351.85738748488
 20
39397.64421562394
 30
0.0
 11
27151.85738724372
 21
39397.64421562394
 31
0.0
  0
LINE
  5
181
330
20
100
AcDbEntity
  8
1
  6
Continuous
 62
     7
100
AcDbLine
 10
27151.85738724372
 20
39847.02851682234
 30
0.0
 11
28947.34685635143
 21
39847.02851682234
 31
0.0
  0
LINE
  5
182
330
20
100
AcDbEntity
  8
1
  6
Continuous
 62
     7
100
AcDbLine
 10
27151.85738724372
 20
37962.16249542923
 30
0.0
 11
27151.85738724372
 21
38197.64421417714
 31
0.0
  0
LINE
  5
183
330
20
100
AcDbEntity
  8
1
  6
Continuous
 62
     7
100
AcDbLine
 10
26949.75976990837
 20
37772.18029495644
 30
0.0
 11
26949.75976990837
 21
37962.16249542923
 31
0.0
  0
LINE
  5
184
330
20
100
AcDbEntity
  8
1
  6
Continuous
 62
     7
100
AcDbLine
 10
26949.75976990837
 20
37962.16249542923
 30
0.0
 11
27151.85738724372
 21
37962.16249542923
 31
0.0
  0
LINE
  5
185
330
20
100
AcDbEntity
  8
1
  6
Continuous
 62
     7
100
AcDbLine
 10
27151.85738724372
 20
37362.16249470584
 30
0.0
 11
26949.75976990837
 21
37362.16249470584
 31
0.0
  0
LINE
  5
186
330
20
100
AcDbEntity
  8
1
  6
Continuous
 62
     7
100
AcDbLine
 10
26949.75976990837
 20
37362.16249470584
 30
0.0
 11
26949.75976990837
 21
37572.18029471544
 31
0.0
  0
LINE
  5
187
330
20
100
AcDbEntity
  8
1
  6
Continuous
 62
     7
100
AcDbLine
 10
27151.85738724372
 20
36680.77330509033
 30
0.0
 11
27151.85738724372
 21
37362.16249470584
 31
0.0
  0
LINE
  5
188
330
20
100
AcDbEntity
  8
1
  6
Continuous
 62
     7
100
AcDbLine
 10
27151.85738724372
 20
39397.64421562405
 30
0.0
 11
27151.85738724372
 21
39847.02851682234
 31
0.0
  0
LINE
  5
189
330
20
100
AcDbEntity
  8
1
  6
Continuous
 62
     7
100
AcDbLine
 10
27351.85738748488
 20
37962.16249542923
 30
0.0
 11
27351.85738748488
 21
38197.64421417714
 31
0.0
  0
LINE
  5
18A
330
20
100
AcDbEntity
  8
1
  6
Continuous
 62
     7
100
AcDbLine
 10
27351.85738748488
 20
37962.16249542923
 30
0.0
 11
27549.75977063177
 21
37962.16249542923
 31
0.0
  0
LINE
  5
18B
330
20
100
AcDbEntity
  8
1
  6
Continuous
 62
     7
100
AcDbLine
 10
27549.75977063177
 20
37362.16249470584
 30
0.0
 11
27351.85738748488
 21
37362.16249470584
 31
0.0
  0
LINE
  5
18C
330
20
100
AcDbEntity
  8
1
  6
Continuous
 62
     7
100
AcDbLine
 10
27351.85738748488
 20
36680.77330509036
 30
0.0
 11
27351.85738748488
 21
37362.16249470584
 31
0.0
  0
LINE
  5
18D
330
20
100
AcDbEntity
  8
1
  6
Continuous
 62
     7
100
AcDbLine
 10
27549.75977063177
 20
37962.16249542923
 30
0.0
 11
27549.75977063177
 21
37362.16249470584
 31
0.0
  0
LINE
  5
18E
330
20
100
AcDbEntity
  8
1
  6
Continuous
 62
     7
100
AcDbLine
 10
27351.85738748488
 20
39647.02851658125
 30
0.0
 11
28947.34685635143
 21
39647.02851658125
 31
0.0
  0
LINE
  5
18F
330
20
100
AcDbEntity
  8
1
  6
Continuous
 62
     7
100
AcDbLine
 10
27351.85738748488
 20
39397.64421562394
 30
0.0
 11
27351.85738748488
 21
39647.02851658125
 31
0.0
  0
LINE
  5
190
330
20
100
AcDbEntity
  8
1
  6
Continuous
 62
     7
100
AcDbLine
 10
27549.75977063177
 20
44562.16250338673
 30
0.0
 11
26949.75976990837
 21
44562.16250338673
 31
0.0
  0
LINE
  5
191
330
20
100
AcDbEntity
  8
1
  6
Continuous
 62
     7
100
AcDbLine
 10
26949.75976990837
 20
44562.16250338673
 30
0.0
 11
26949.75976990837
 21
44870.18030351443
 31
0.0
  0
LINE
  5
192
330
20
100
AcDbEntity
  8
1
  6
Continuous
 62
     7
100
AcDbLine
 10
27549.75977063177
 20
44870.18030351443
 30
0.0
 11
27549.75977063177
 21
44562.16250338673
 31
0.0
  0
LINE
  5
193
330
20
100
AcDbEntity
  8
1
  6
Continuous
 62
     7
100
AcDbLine
 10
32153.97708788385
 20
44870.18030351443
 30
0.0
 11
32153.97708788385
 21
39847.02851682234
 31
0.0
  0
LINE
  5
194
330
20
100
AcDbEntity
  8
1
  6
Continuous
 62
     7
100
AcDbLine
 10
31953.97708764275
 20
44870.18030351443
 30
0.0
 11
31953.97708764271
 21
39847.02851682234
 31
0.0
  0
LINE
  5
195
330
20
100
AcDbEntity
  8
1
  6
Continuous
 62
     7
100
AcDbLine
 10
34653.97709089807
 20
44870.18030351443
 30
0.0
 11
34653.97709089807
 21
39647.02851658114
 31
0.0
  0
LINE
  5
196
330
20
100
AcDbEntity
  8
1
  6
Continuous
 62
     7
100
AcDbLine
 10
34453.97709065693
 20
44572.18030315514
 30
0.0
 11
34453.97709065693
 21
39847.02851682234
 31
0.0
  0
LINE
  5
197
330
20
100
AcDbEntity
  8
1
  6
Continuous
 62
     7
100
AcDbLine
 10
33688.72807209876
 20
40597.02851772624
 30
0.0
 11
33688.72807209876
 21
39847.02851682205
 31
0.0
  0
LINE
  5
198
330
20
100
AcDbEntity
  8
1
  6
Continuous
 62
     7
100
AcDbLine
 10
31549.75977545448
 20
37872.18029507704
 30
0.0
 11
33849.75977822755
 21
37872.18029507704
 31
0.0
  0
LINE
  5
199
330
20
100
AcDbEntity
  8
1
  6
Continuous
 62
     7
100
AcDbLine
 10
31766.18123032055
 20
37672.18029483585
 30
0.0
 11
33849.75977822755
 21
37672.18029483585
 31
0.0
  0
LINE
  5
19A
330
20
100
AcDbEntity
  8
1
  6
Continuous
 62
     7
100
AcDbLine
 10
32938.7280711945
 20
39847.02851682205
 30
0.0
 11
32938.7280711945
 21
39647.02851658084
 31
0.0
  0
LINE
  5
19B
330
20
100
AcDbEntity
  8
1
  6
Continuous
 62
     7
100
AcDbLine
 10
32153.97708788385
 20
39847.02851682234
 30
0.0
 11
32938.7280711945
 21
39847.02851682234
 31
0.0
  0
LINE
  5
19C
330
20
100
AcDbEntity
  8
1
  6
Continuous
 62
     7
100
AcDbLine
 10
34449.75977895099
 20
37972.18029519764
 30
0.0
 11
34449.75977895099
 21
37872.18029507704
 31
0.0
  0
LINE
  5
19D
330
20
100
AcDbEntity
  8
1
  6
Continuous
 62
     7
100
AcDbLine
 10
34449.75977895099
 20
37372.18029447425
 30
0.0
 11
34449.75977895099
 21
37672.18029483594
 31
0.0
  0
LINE
  5
19E
330
20
100
AcDbEntity
  8
1
  6
Continuous
 62
     7
100
AcDbLine
 10
33849.75977822755
 20
37972.18029519764
 30
0.0
 11
33849.75977822755
 21
37872.18029507704
 31
0.0
  0
LINE
  5
19F
330
20
100
AcDbEntity
  8
1
  6
Continuous
 62
     7
100
AcDbLine
 10
33849.75977822755
 20
37372.18029447425
 30
0.0
 11
34049.75977846871
 21
37372.18029447425
 31
0.0
  0
LINE
  5
1A0
330
20
100
AcDbEntity
  8
1
  6
Continuous
 62
     7
100
AcDbLine
 10
33849.75977822755
 20
37672.18029483585
 30
0.0
 11
33849.75977822755
 21
37372.18029447425
 31
0.0
  0
LINE
  5
1A1
330
20
100
AcDbEntity
  8
1
  6
Continuous
 62
     7
100
AcDbLine
 10
34449.75977895099
 20
37972.18029519764
 30
0.0
 11
33849.75977822755
 21
37972.18029519764
 31
0.0
  0
LINE
  5
1A2
330
20
100
AcDbEntity
  8
1
  6
Continuous
 62
     7
100
AcDbLine
 10
34449.75977895099
 20
37372.18029447425
 30
0.0
 11
34249.75977870984
 21
37372.18029447425
 31
0.0
  0
LINE
  5
1A3
330
20
100
AcDbEntity
  8
1
  6
Continuous
 62
     7
100
AcDbLine
 10
33688.72807209876
 20
39847.02851682213
 30
0.0
 11
33688.72807209876
 21
39647.02851658094
 31
0.0
  0
LINE
  5
1A4
330
20
100
AcDbEntity
  8
1
  6
Continuous
 62
     7
100
AcDbLine
 10
33688.72807209876
 20
39647.02851658114
 30
0.0
 11
34653.97709089807
 21
39647.02851658114
 31
0.0
  0
LINE
  5
1A5
330
20
100
AcDbEntity
  8
1
  6
Continuous
 62
     7
100
AcDbLine
 10
33688.72807209876
 20
39847.02851682234
 30
0.0
 11
34453.97709065693
 21
39847.02851682234
 31
0.0
  0
LINE
  5
1A6
330
20
100
AcDbEntity
  8
1
  6
Continuous
 62
     7
100
AcDbLine
 10
32153.97708788385
 20
44870.18030351443
 30
0.0
 11
33853.97708993351
 21
44870.18030351443
 31
0.0
  0
LINE
  5
1A7
330
20
100
AcDbEntity
  8
1
  6
Continuous
 62
     7
100
AcDbLine
 10
33853.97708993351
 20
44572.18030315514
 30
0.0
 11
34453.97709065693
 21
44572.18030315514
 31
0.0
  0
LINE
  5
1A8
330
20
100
AcDbEntity
  8
1
  6
Continuous
 62
     7
100
AcDbLine
 10
34453.97709065693
 20
44572.18030315514
 30
0.0
 11
34453.97709065693
 21
44870.18030351443
 31
0.0
  0
LINE
  5
1A9
330
20
100
AcDbEntity
  8
1
  6
Continuous
 62
     7
100
AcDbLine
 10
33853.97708993351
 20
44870.18030351443
 30
0.0
 11
33853.97708993351
 21
44572.18030315514
 31
0.0
  0
LINE
  5
1AA
330
20
100
AcDbEntity
  8
1
  6
Continuous
 62
     7
100
AcDbLine
 10
59649.75980933433
 20
37372.18029447425
 30
0.0
 11
64249.7598148805
 21
37372.18029447425
 31
0.0
  0
LINE
  5
1AB
330
20
100
AcDbEntity
  8
1
  6
Continuous
 62
     7
100
AcDbLine
 10
59649.75980933433
 20
37572.18029471544
 30
0.0
 11
64449.75981512162
 21
37572.18029471534
 31
0.0
  0
LINE
  5
1AC
330
20
100
AcDbEntity
  8
1
  6
Continuous
 62
     7
100
AcDbLine
 10
64249.7598148805
 20
16172.18026891363
 30
0.0
 11
59649.75980933441
 21
16172.18026891363
 31
0.0
  0
LINE
  5
1AD
330
20
100
AcDbEntity
  8
1
  6
Continuous
 62
     7
100
AcDbLine
 10
52249.75980041223
 20
30172.18028579326
 30
0.0
 11
52249.75980041223
 21
23572.18027783573
 31
0.0
  0
LINE
  5
1AE
330
20
100
AcDbEntity
  8
1
  6
Continuous
 62
     7
100
AcDbLine
 10
52049.75980017107
 20
30172.18028579326
 30
0.0
 11
52049.75980017107
 21
23572.18027783573
 31
0.0
  0
LINE
  5
1AF
330
20
100
AcDbEntity
  8
1
  6
Continuous
 62
     7
100
AcDbLine
 10
49849.75979751856
 20
28972.18028434646
 30
0.0
 11
49849.75979751856
 21
23372.1802775946
 31
0.0
  0
LINE
  5
1B0
330
20
100
AcDbEntity
  8
1
  6
Continuous
 62
     7
100
AcDbLine
 10
50049.75979775974
 20
28972.18028434646
 30
0.0
 11
50049.75979775974
 21
22972.18027711233
 31
0.0
  0
LINE
  5
1B1
330
20
100
AcDbEntity
  8
1
  6
Continuous
 62
     7
100
AcDbLine
 10
37549.7597826886
 20
27772.18028289964
 30
0.0
 11
37549.7597826886
 21
26972.18028193506
 31
0.0
  0
LINE
  5
1B2
330
20
100
AcDbEntity
  8
1
  6
Continuous
 62
     7
100
AcDbLine
 10
49849.75979751856
 20
23172.18027735345
 30
0.0
 11
45249.75979197241
 21
23172.18027735345
 31
0.0
  0
LINE
  5
1B3
330
20
100
AcDbEntity
  8
1
  6
Continuous
 62
     7
100
AcDbLine
 10
49849.75979751856
 20
23372.1802775946
 30
0.0
 11
45249.75979197241
 21
23372.1802775946
 31
0.0
  0
LINE
  5
1B4
330
20
100
AcDbEntity
  8
1
  6
Continuous
 62
     7
100
AcDbLine
 10
49849.75979751856
 20
19572.18027301304
 30
0.0
 11
48849.7597963129
 21
19572.18027301304
 31
0.0
  0
LINE
  5
1B5
330
20
100
AcDbEntity
  8
1
  6
Continuous
 62
     7
100
AcDbLine
 10
50049.75979775974
 20
19372.18027277189
 30
0.0
 11
49049.75979655403
 21
19372.18027277189
 31
0.0
  0
LINE
  5
1B6
330
20
100
AcDbEntity
  8
1
  6
Continuous
 62
     7
100
AcDbLine
 10
49049.75979655403
 20
18172.18027132509
 30
0.0
 11
49249.75979679518
 21
18172.18027132509
 31
0.0
  0
LINE
  5
1B7
330
20
100
AcDbEntity
  8
1
  6
Continuous
 62
     7
100
AcDbLine
 10
49049.75979655403
 20
18372.18027156621
 30
0.0
 11
49249.75979679518
 21
18372.18027156621
 31
0.0
  0
LINE
  5
1B8
330
20
100
AcDbEntity
  8
1
  6
Continuous
 62
     7
100
AcDbLine
 10
49899.75979757884
 20
16172.18026891363
 30
0.0
 11
45249.75979197244
 21
16172.18026891363
 31
0.0
  0
LINE
  5
1B9
330
20
100
AcDbEntity
  8
1
  6
Continuous
 62
     7
100
AcDbLine
 10
50249.75979800087
 20
15972.1802686725
 30
0.0
 11
45249.75979197244
 21
15972.1802686725
 31
0.0
  0
LINE
  5
1BA
330
20
100
AcDbEntity
  8
1
  6
Continuous
 62
     7
100
AcDbLine
 10
44649.75979124903
 20
16372.18026915478
 30
0.0
 11
44649.75979124903
 21
18372.18027156621
 31
0.0
  0
LINE
  5
1BB
330
20
100
AcDbEntity
  8
1
  6
Continuous
 62
     7
100
AcDbLine
 10
44849.75979149019
 20
16372.18026915473
 30
0.0
 11
44849.75979149019
 21
18172.18027132509
 31
0.0
  0
LINE
  5
1BC
330
20
100
AcDbEntity
  8
1
  6
Continuous
 62
     7
100
AcDbLine
 10
37649.7597828092
 20
16372.18026915473
 30
0.0
 11
37649.7597828092
 21
22972.18027711233
 31
0.0
  0
LINE
  5
1BD
330
20
100
AcDbEntity
  8
1
  6
Continuous
 62
     7
100
AcDbLine
 10
38849.75978425606
 20
16072.18026879308
 30
0.0
 11
44649.75979124903
 21
16072.18026879308
 31
0.0
  0
LINE
  5
1BE
330
20
100
AcDbEntity
  8
1
  6
Continuous
 62
     7
100
AcDbLine
 10
44649.75979124903
 20
16172.18026891363
 30
0.0
 11
38049.75978329153
 21
16172.18026891363
 31
0.0
  0
LINE
  5
1BF
330
20
100
AcDbEntity
  8
1
  6
Continuous
 62
     7
100
AcDbLine
 10
44649.75979124903
 20
15972.1802686725
 30
0.0
 11
38049.75978329153
 21
15972.1802686725
 31
0.0
  0
LINE
  5
1C0
330
20
100
AcDbEntity
  8
1
  6
Continuous
 62
     7
100
AcDbLine
 10
38049.75978329153
 20
15972.1802686725
 30
0.0
 11
38049.75978329153
 21
15772.18026843135
 31
0.0
  0
LINE
  5
1C1
330
20
100
AcDbEntity
  8
1
  6
Continuous
 62
     7
100
AcDbLine
 10
38049.75978329153
 20
15772.18026843135
 30
0.0
 11
37449.75978256807
 21
15772.18026843135
 31
0.0
  0
LINE
  5
1C2
330
20
100
AcDbEntity
  8
1
  6
Continuous
 62
     7
100
AcDbLine
 10
37649.7597828092
 20
16372.18026915473
 30
0.0
 11
38049.75978329153
 21
16372.18026915478
 31
0.0
  0
LINE
  5
1C3
330
20
100
AcDbEntity
  8
1
  6
Continuous
 62
     7
100
AcDbLine
 10
38049.75978329153
 20
16372.18026915478
 30
0.0
 11
38049.75978329153
 21
16172.18026891363
 31
0.0
  0
LINE
  5
1C4
330
20
100
AcDbEntity
  8
1
  6
Continuous
 62
     7
100
AcDbLine
 10
37449.75978256809
 20
16172.18026891363
 30
0.0
 11
37449.75978256809
 21
16372.18026915478
 31
0.0
  0
LINE
  5
1C5
330
20
100
AcDbEntity
  8
1
  6
Continuous
 62
     7
100
AcDbLine
 10
39649.75978522061
 20
15972.1802686725
 30
0.0
 11
39649.75978522061
 21
16172.18026891363
 31
0.0
  0
LINE
  5
1C6
330
20
100
AcDbEntity
  8
1
  6
Continuous
 62
     7
100
AcDbLine
 10
38849.75978425606
 20
15972.1802686725
 30
0.0
 11
38849.75978425606
 21
16172.18026891363
 31
0.0
  0
LINE
  5
1C7
330
20
100
AcDbEntity
  8
1
  6
Continuous
 62
     7
100
AcDbLine
 10
40449.75978618514
 20
15972.1802686725
 30
0.0
 11
40449.75978618514
 21
16172.18026891363
 31
0.0
  0
LINE
  5
1C8
330
20
100
AcDbEntity
  8
1
  6
Continuous
 62
     7
100
AcDbLine
 10
41249.7597871497
 20
15972.1802686725
 30
0.0
 11
41249.7597871497
 21
16172.18026891363
 31
0.0
  0
LINE
  5
1C9
330
20
100
AcDbEntity
  8
1
  6
Continuous
 62
     7
100
AcDbLine
 10
42049.75978811428
 20
15972.1802686725
 30
0.0
 11
42049.75978811428
 21
16172.18026891363
 31
0.0
  0
LINE
  5
1CA
330
20
100
AcDbEntity
  8
1
  6
Continuous
 62
     7
100
AcDbLine
 10
45249.75979197244
 20
15972.1802686725
 30
0.0
 11
45249.75979197244
 21
15772.18026843135
 31
0.0
  0
LINE
  5
1CB
330
20
100
AcDbEntity
  8
1
  6
Continuous
 62
     7
100
AcDbLine
 10
44649.75979124903
 20
15772.18026843135
 30
0.0
 11
44649.75979124903
 21
15972.1802686725
 31
0.0
  0
LINE
  5
1CC
330
20
100
AcDbEntity
  8
1
  6
Continuous
 62
     7
100
AcDbLine
 10
45249.75979197244
 20
15772.18026843135
 30
0.0
 11
44649.75979124903
 21
15772.18026843135
 31
0.0
  0
LINE
  5
1CD
330
20
100
AcDbEntity
  8
1
  6
Continuous
 62
     7
100
AcDbLine
 10
42849.7597890788
 20
15972.1802686725
 30
0.0
 11
42849.7597890788
 21
16172.18026891363
 31
0.0
  0
LINE
  5
1CE
330
20
100
AcDbEntity
  8
1
  6
Continuous
 62
     7
100
AcDbLine
 10
43649.75979004336
 20
15972.1802686725
 30
0.0
 11
43649.75979004336
 21
16172.18026891363
 31
0.0
  0
LINE
  5
1CF
330
20
100
AcDbEntity
  8
1
  6
Continuous
 62
     7
100
AcDbLine
 10
44649.75979124903
 20
16172.18026891363
 30
0.0
 11
44649.75979124903
 21
16372.18026915478
 31
0.0
  0
LINE
  5
1D0
330
20
100
AcDbEntity
  8
1
  6
Continuous
 62
     7
100
AcDbLine
 10
44849.75979149019
 20
16372.18026915473
 30
0.0
 11
45249.75979197244
 21
16372.18026915478
 31
0.0
  0
LINE
  5
1D1
330
20
100
AcDbEntity
  8
1
  6
Continuous
 62
     7
100
AcDbLine
 10
45249.75979197244
 20
16372.18026915478
 30
0.0
 11
45249.75979197244
 21
16172.18026891363
 31
0.0
  0
LINE
  5
1D2
330
20
100
AcDbEntity
  8
1
  6
Continuous
 62
     7
100
AcDbLine
 10
44449.75979100794
 20
15972.1802686725
 30
0.0
 11
44449.75979100794
 21
16172.18026891363
 31
0.0
  0
LINE
  5
1D3
330
20
100
AcDbEntity
  8
1
  6
Continuous
 62
     7
100
AcDbLine
 10
38849.75978425601
 20
23372.1802775946
 30
0.0
 11
44649.75979124899
 21
23372.1802775946
 31
0.0
  0
LINE
  5
1D4
330
20
100
AcDbEntity
  8
1
  6
Continuous
 62
     7
100
AcDbLine
 10
38849.75978425601
 20
23172.18027735345
 30
0.0
 11
44649.75979124899
 21
23172.18027735345
 31
0.0
  0
LINE
  5
1D5
330
20
100
AcDbEntity
  8
1
  6
Continuous
 62
     7
100
AcDbLine
 10
37649.7597828092
 20
23572.18027783573
 30
0.0
 11
37649.7597828092
 21
25172.18027976482
 31
0.0
  0
LINE
  5
1D6
330
20
100
AcDbEntity
  8
1
  6
Continuous
 62
     7
100
AcDbLine
 10
37449.75978256805
 20
22972.18027711233
 30
0.0
 11
37449.75978256805
 21
25172.18027976482
 31
0.0
  0
LINE
  5
1D7
330
20
100
AcDbEntity
  8
1
  6
Continuous
 62
     7
100
AcDbLine
 10
38049.75978329145
 20
23372.1802775946
 30
0.0
 11
38849.75978425601
 21
23372.1802775946
 31
0.0
  0
LINE
  5
1D8
330
20
100
AcDbEntity
  8
1
  6
Continuous
 62
     7
100
AcDbLine
 10
38049.75978329145
 20
23172.18027735345
 30
0.0
 11
38849.75978425601
 21
23172.18027735345
 31
0.0
  0
LINE
  5
1D9
330
20
100
AcDbEntity
  8
1
  6
Continuous
 62
     7
100
AcDbLine
 10
38049.75978329145
 20
22972.18027711233
 30
0.0
 11
38049.75978329145
 21
23172.18027735345
 31
0.0
  0
LINE
  5
1DA
330
20
100
AcDbEntity
  8
1
  6
Continuous
 62
     7
100
AcDbLine
 10
37649.7597828092
 20
23572.18027783573
 30
0.0
 11
38049.75978329145
 21
23572.18027783573
 31
0.0
  0
LINE
  5
1DB
330
20
100
AcDbEntity
  8
1
  6
Continuous
 62
     7
100
AcDbLine
 10
38049.75978329145
 20
22972.18027711233
 30
0.0
 11
37649.7597828092
 21
22972.18027711227
 31
0.0
  0
LINE
  5
1DC
330
20
100
AcDbEntity
  8
1
  6
Continuous
 62
     7
100
AcDbLine
 10
38049.75978329145
 20
23372.1802775946
 30
0.0
 11
38049.75978329145
 21
23572.18027783573
 31
0.0
  0
LINE
  5
1DD
330
20
100
AcDbEntity
  8
1
  6
Continuous
 62
     7
100
AcDbLine
 10
37549.7597826886
 20
25172.18027976482
 30
0.0
 11
37549.7597826886
 21
26172.18028097054
 31
0.0
  0
LINE
  5
1DE
330
20
100
AcDbEntity
  8
1
  6
Continuous
 62
     7
100
AcDbLine
 10
37449.75978256805
 20
25172.18027976482
 30
0.0
 11
37649.7597828092
 21
25172.18027976482
 31
0.0
  0
LINE
  5
1DF
330
20
100
AcDbEntity
  8
1
  6
Continuous
 62
     7
100
AcDbLine
 10
37449.75978256805
 20
26972.18028193506
 30
0.0
 11
37449.75978256805
 21
26172.18028097054
 31
0.0
  0
LINE
  5
1E0
330
20
100
AcDbEntity
  8
1
  6
Continuous
 62
     7
100
AcDbLine
 10
37449.75978256805
 20
26172.18028097054
 30
0.0
 11
37649.7597828092
 21
26172.18028097054
 31
0.0
  0
LINE
  5
1E1
330
20
100
AcDbEntity
  8
1
  6
Continuous
 62
     7
100
AcDbLine
 10
37649.7597828092
 20
26172.18028097054
 30
0.0
 11
37649.7597828092
 21
26972.18028193506
 31
0.0
  0
LINE
  5
1E2
330
20
100
AcDbEntity
  8
1
  6
Continuous
 62
     7
100
AcDbLine
 10
37649.7597828092
 20
26972.18028193506
 30
0.0
 11
37449.75978256805
 21
26972.18028193506
 31
0.0
  0
LINE
  5
1E3
330
20
100
AcDbEntity
  8
1
  6
Continuous
 62
     7
100
AcDbLine
 10
48849.7597963129
 20
18372.18027156621
 30
0.0
 11
44649.75979124903
 21
18372.18027156621
 31
0.0
  0
LINE
  5
1E4
330
20
100
AcDbEntity
  8
1
  6
Continuous
 62
     7
100
AcDbLine
 10
49049.75979655403
 20
18172.18027132509
 30
0.0
 11
44849.75979149019
 21
18172.18027132509
 31
0.0
  0
LINE
  5
1E5
330
20
100
AcDbEntity
  8
1
  6
Continuous
 62
     7
100
AcDbLine
 10
49049.75979655403
 20
19372.18027277189
 30
0.0
 11
49049.75979655403
 21
18372.18027156621
 31
0.0
  0
LINE
  5
1E6
330
20
100
AcDbEntity
  8
1
  6
Continuous
 62
     7
100
AcDbLine
 10
48849.7597963129
 20
19572.18027301304
 30
0.0
 11
48849.7597963129
 21
18372.18027156621
 31
0.0
  0
LINE
  5
1E7
330
20
100
AcDbEntity
  8
1
  6
Continuous
 62
     7
100
AcDbLine
 10
45249.75979197241
 20
22972.18027711233
 30
0.0
 11
44649.75979124899
 21
22972.18027711233
 31
0.0
  0
LINE
  5
1E8
330
20
100
AcDbEntity
  8
1
  6
Continuous
 62
     7
100
AcDbLine
 10
44649.75979124899
 20
23572.18027783573
 30
0.0
 11
45249.75979197241
 21
23572.18027783573
 31
0.0
  0
LINE
  5
1E9
330
20
100
AcDbEntity
  8
1
  6
Continuous
 62
     7
100
AcDbLine
 10
44649.75979124899
 20
22972.18027711233
 30
0.0
 11
44649.75979124899
 21
23172.18027735345
 31
0.0
  0
LINE
  5
1EA
330
20
100
AcDbEntity
  8
1
  6
Continuous
 62
     7
100
AcDbLine
 10
45249.75979197241
 20
22972.18027711233
 30
0.0
 11
45249.75979197241
 21
23172.18027735345
 31
0.0
  0
LINE
  5
1EB
330
20
100
AcDbEntity
  8
1
  6
Continuous
 62
     7
100
AcDbLine
 10
45249.75979197241
 20
23372.1802775946
 30
0.0
 11
45249.75979197241
 21
23572.18027783573
 31
0.0
  0
LINE
  5
1EC
330
20
100
AcDbEntity
  8
1
  6
Continuous
 62
     7
100
AcDbLine
 10
44649.75979124899
 20
23372.1802775946
 30
0.0
 11
44649.75979124899
 21
23572.18027783573
 31
0.0
  0
LINE
  5
1ED
330
20
100
AcDbEntity
  8
1
  6
Continuous
 62
     7
100
AcDbLine
 10
50099.75979782002
 20
17972.18027108384
 30
0.0
 11
50099.75979782002
 21
18372.18027156621
 31
0.0
  0
LINE
  5
1EE
330
20
100
AcDbEntity
  8
1
  6
Continuous
 62
     7
100
AcDbLine
 10
49849.75979751856
 20
17572.18027060165
 30
0.0
 11
49849.75979751856
 21
18372.18027156621
 31
0.0
  0
ARC
  5
1EF
330
20
100
AcDbEntity
  8
1
  6
Continuous
 62
     7
100
AcDbCircle
 10
49849.75979751856
 20
18172.18027132509
 30
0.0
 40
600.0000007234127
100
AcDbArc
 50
180.0
 51
270.0
  0
LINE
  5
1F0
330
20
100
AcDbEntity
  8
1
  6
Continuous
 62
     7
100
AcDbLine
 10
49899.75979757884
 20
16172.18026891363
 30
0.0
 11
49899.75979757884
 21
18172.18027132509
 31
0.0
  0
LINE
  5
1F1
330
20
100
AcDbEntity
  8
1
  6
Continuous
 62
     7
100
AcDbLine
 10
52249.75980041223
 20
22972.18027711233
 30
0.0
 11
52249.75980041223
 21
16372.18026915478
 31
0.0
  0
LINE
  5
1F2
330
20
100
AcDbEntity
  8
1
  6
Continuous
 62
     7
100
AcDbLine
 10
52049.75980017107
 20
22972.18027711233
 30
0.0
 11
52049.75980017107
 21
17972.18027108384
 31
0.0
  0
LINE
  5
1F3
330
20
100
AcDbEntity
  8
1
  6
Continuous
 62
     7
100
AcDbLine
 10
59049.75980861094
 20
16172.18026891363
 30
0.0
 11
52449.75980065341
 21
16172.18026891363
 31
0.0
  0
LINE
  5
1F4
330
20
100
AcDbEntity
  8
1
  6
Continuous
 62
     7
100
AcDbLine
 10
59049.75980861094
 20
15972.1802686725
 30
0.0
 11
52449.75980065341
 21
15972.1802686725
 31
0.0
  0
LINE
  5
1F5
330
20
100
AcDbEntity
  8
1
  6
Continuous
 62
     7
100
AcDbLine
 10
52449.75980065341
 20
15772.18026843135
 30
0.0
 11
51849.75979993001
 21
15772.18026843135
 31
0.0
  0
LINE
  5
1F6
330
20
100
AcDbEntity
  8
1
  6
Continuous
 62
     7
100
AcDbLine
 10
51849.75979993001
 20
15772.18026843135
 30
0.0
 11
51849.75979993001
 21
15972.1802686725
 31
0.0
  0
LINE
  5
1F7
330
20
100
AcDbEntity
  8
1
  6
Continuous
 62
     7
100
AcDbLine
 10
50099.75979782002
 20
17972.18027108384
 30
0.0
 11
50249.75979800087
 21
17972.18027108384
 31
0.0
  0
LINE
  5
1F8
330
20
100
AcDbEntity
  8
1
  6
Continuous
 62
     7
100
AcDbLine
 10
50099.75979782002
 20
17772.18027084269
 30
0.0
 11
50249.75979800087
 21
17772.18027084269
 31
0.0
  0
LINE
  5
1F9
330
20
100
AcDbEntity
  8
1
  6
Continuous
 62
     7
100
AcDbLine
 10
50249.75979800087
 20
17772.18027084269
 30
0.0
 11
50249.75979800087
 21
17972.18027108384
 31
0.0
  0
LINE
  5
1FA
330
20
100
AcDbEntity
  8
1
  6
Continuous
 62
     7
100
AcDbLine
 10
50249.75979800087
 20
15972.1802686725
 30
0.0
 11
50249.75979800087
 21
16172.18026891363
 31
0.0
  0
LINE
  5
1FB
330
20
100
AcDbEntity
  8
1
  6
Continuous
 62
     7
100
AcDbLine
 10
50249.75979800087
 20
16172.18026891363
 30
0.0
 11
50099.75979782002
 21
16172.18026891363
 31
0.0
  0
LINE
  5
1FC
330
20
100
AcDbEntity
  8
1
  6
Continuous
 62
     7
100
AcDbLine
 10
50099.75979782002
 20
16172.18026891363
 30
0.0
 11
50099.75979782002
 21
17772.18027084269
 31
0.0
  0
LINE
  5
1FD
330
20
100
AcDbEntity
  8
1
  6
Continuous
 62
     7
100
AcDbLine
 10
51649.75979968883
 20
17772.18027084269
 30
0.0
 11
52049.75980017107
 21
17772.18027084269
 31
0.0
  0
LINE
  5
1FE
330
20
100
AcDbEntity
  8
1
  6
Continuous
 62
     7
100
AcDbLine
 10
51649.75979968883
 20
17972.18027108384
 30
0.0
 11
52049.75980017107
 21
17972.18027108384
 31
0.0
  0
LINE
  5
1FF
330
20
100
AcDbEntity
  8
1
  6
Continuous
 62
     7
100
AcDbLine
 10
51649.75979968883
 20
17772.18027084269
 30
0.0
 11
51649.75979968883
 21
17972.18027108384
 31
0.0
  0
LINE
  5
200
330
20
100
AcDbEntity
  8
1
  6
Continuous
 62
     7
100
AcDbLine
 10
51849.75979993001
 20
16372.18026915478
 30
0.0
 11
52049.75980017107
 21
16372.18026915473
 31
0.0
  0
LINE
  5
201
330
20
100
AcDbEntity
  8
1
  6
Continuous
 62
     7
100
AcDbLine
 10
51849.75979993001
 20
16172.18026891363
 30
0.0
 11
51849.75979993001
 21
16372.18026915478
 31
0.0
  0
LINE
  5
202
330
20
100
AcDbEntity
  8
1
  6
Continuous
 62
     7
100
AcDbLine
 10
51849.75979993001
 20
16172.18026891363
 30
0.0
 11
51649.75979968883
 21
16172.18026891363
 31
0.0
  0
LINE
  5
203
330
20
100
AcDbEntity
  8
1
  6
Continuous
 62
     7
100
AcDbLine
 10
51849.75979993001
 20
15972.1802686725
 30
0.0
 11
51649.75979968883
 21
15972.1802686725
 31
0.0
  0
LINE
  5
204
330
20
100
AcDbEntity
  8
1
  6
Continuous
 62
     7
100
AcDbLine
 10
51649.75979968883
 20
15972.1802686725
 30
0.0
 11
51649.75979968883
 21
16172.18026891363
 31
0.0
  0
LINE
  5
205
330
20
100
AcDbEntity
  8
1
  6
Continuous
 62
     7
100
AcDbLine
 10
52049.75980017107
 20
17772.18027084269
 30
0.0
 11
52049.75980017107
 21
16372.18026915473
 31
0.0
  0
LINE
  5
206
330
20
100
AcDbEntity
  8
1
  6
Continuous
 62
     7
100
AcDbLine
 10
52449.75980065341
 20
15972.1802686725
 30
0.0
 11
52449.75980065341
 21
15772.18026843135
 31
0.0
  0
LINE
  5
207
330
20
100
AcDbEntity
  8
1
  6
Continuous
 62
     7
100
AcDbLine
 10
52449.75980065341
 20
16372.18026915478
 30
0.0
 11
52449.75980065341
 21
16172.18026891363
 31
0.0
  0
LINE
  5
208
330
20
100
AcDbEntity
  8
1
  6
Continuous
 62
     7
100
AcDbLine
 10
52249.75980041228
 20
16372.18026915473
 30
0.0
 11
52449.75980065341
 21
16372.18026915478
 31
0.0
  0
LINE
  5
209
330
20
100
AcDbEntity
  8
1
  6
Continuous
 62
     7
100
AcDbLine
 10
59649.75980933433
 20
15772.18026843135
 30
0.0
 11
59649.75980933433
 21
15972.1802686725
 31
0.0
  0
LINE
  5
20A
330
20
100
AcDbEntity
  8
1
  6
Continuous
 62
     7
100
AcDbLine
 10
59049.75980861092
 20
15772.18026843135
 30
0.0
 11
59049.75980861092
 21
15972.1802686725
 31
0.0
  0
LINE
  5
20B
330
20
100
AcDbEntity
  8
1
  6
Continuous
 62
     7
100
AcDbLine
 10
59649.75980933441
 20
15972.1802686725
 30
0.0
 11
59649.75980933441
 21
15772.18026843135
 31
0.0
  0
LINE
  5
20C
330
20
100
AcDbEntity
  8
1
  6
Continuous
 62
     7
100
AcDbLine
 10
59049.75980861094
 20
15772.18026843135
 30
0.0
 11
59049.75980861094
 21
15972.1802686725
 31
0.0
  0
LINE
  5
20D
330
20
100
AcDbEntity
  8
1
  6
Continuous
 62
     7
100
AcDbLine
 10
59649.75980933433
 20
15772.18026843135
 30
0.0
 11
59049.75980861092
 21
15772.18026843135
 31
0.0
  0
LINE
  5
20E
330
20
100
AcDbEntity
  8
1
  6
Continuous
 62
     7
100
AcDbLine
 10
59649.75980933441
 20
15772.18026843135
 30
0.0
 11
59049.75980861094
 21
15772.18026843135
 31
0.0
  0
LINE
  5
20F
330
20
100
AcDbEntity
  8
1
  6
Continuous
 62
     7
100
AcDbLine
 10
59049.75980861092
 20
16372.18026915478
 30
0.0
 11
59649.75980933433
 21
16372.18026915478
 31
0.0
  0
LINE
  5
210
330
20
100
AcDbEntity
  8
1
  6
Continuous
 62
     7
100
AcDbLine
 10
59049.75980861094
 20
16372.18026915478
 30
0.0
 11
59249.75980885206
 21
16372.18026915473
 31
0.0
  0
LINE
  5
211
330
20
100
AcDbEntity
  8
1
  6
Continuous
 62
     7
100
AcDbLine
 10
59049.75980861094
 20
16172.18026891363
 30
0.0
 11
59049.75980861094
 21
16372.18026915478
 31
0.0
  0
LINE
  5
212
330
20
100
AcDbEntity
  8
1
  6
Continuous
 62
     7
100
AcDbLine
 10
59449.75980909324
 20
16372.18026915473
 30
0.0
 11
59649.75980933441
 21
16372.18026915478
 31
0.0
  0
LINE
  5
213
330
20
100
AcDbEntity
  8
1
  6
Continuous
 62
     7
100
AcDbLine
 10
59649.75980933441
 20
16372.18026915478
 30
0.0
 11
59649.75980933441
 21
16172.18026891363
 31
0.0
  0
LINE
  5
214
330
20
100
AcDbEntity
  8
1
  6
Continuous
 62
     7
100
AcDbLine
 10
59649.75980933433
 20
16172.18026891363
 30
0.0
 11
59649.75980933433
 21
16372.18026915478
 31
0.0
  0
LINE
  5
215
330
20
100
AcDbEntity
  8
1
  6
Continuous
 62
     7
100
AcDbLine
 10
59049.75980861092
 20
16172.18026891363
 30
0.0
 11
59049.75980861092
 21
16372.18026915478
 31
0.0
  0
LINE
  5
216
330
20
100
AcDbEntity
  8
1
  6
Continuous
 62
     7
100
AcDbLine
 10
50049.75979775974
 20
21172.18027494213
 30
0.0
 11
50049.75979775974
 21
19372.18027277189
 31
0.0
  0
LINE
  5
217
330
20
100
AcDbEntity
  8
1
  6
Continuous
 62
     7
100
AcDbLine
 10
49849.75979751856
 20
21172.18027494213
 30
0.0
 11
49849.75979751856
 21
19572.18027301304
 31
0.0
  0
LINE
  5
218
330
20
100
AcDbEntity
  8
1
  6
Continuous
 62
     7
100
AcDbLine
 10
49249.75979679518
 20
18372.18027156621
 30
0.0
 11
49249.75979679518
 21
18172.18027132509
 31
0.0
  0
LINE
  5
219
330
20
100
AcDbEntity
  8
1
  6
Continuous
 62
     7
100
AcDbLine
 10
49849.75979751856
 20
18172.18027132509
 30
0.0
 11
49899.75979757884
 21
18172.18027132509
 31
0.0
  0
LINE
  5
21A
330
20
100
AcDbEntity
  8
1
  6
Continuous
 62
     7
100
AcDbLine
 10
49849.75979751856
 20
18372.18027156621
 30
0.0
 11
50099.75979782002
 21
18372.18027156621
 31
0.0
  0
LINE
  5
21B
330
20
100
AcDbEntity
  8
1
  6
Continuous
 62
     7
100
AcDbLine
 10
49849.75979751856
 20
21172.18027494213
 30
0.0
 11
50049.75979775974
 21
21172.18027494213
 31
0.0
  0
LINE
  5
21C
330
20
100
AcDbEntity
  8
1
  6
Continuous
 62
     7
100
AcDbLine
 10
49590.27809061576
 20
22972.18027711233
 30
0.0
 11
50049.75979775974
 21
22972.18027711233
 31
0.0
  0
LINE
  5
21D
330
20
100
AcDbEntity
  8
1
  6
Continuous
 62
     7
100
AcDbLine
 10
49849.75979751856
 20
23172.18027735345
 30
0.0
 11
49849.75979751856
 21
22972.18027711233
 31
0.0
  0
LINE
  5
21E
330
20
100
AcDbEntity
  8
1
  6
Continuous
 62
     7
100
AcDbLine
 10
51849.75979992996
 20
23572.18027783573
 30
0.0
 11
52049.75980017107
 21
23572.18027783573
 31
0.0
  0
LINE
  5
21F
330
20
100
AcDbEntity
  8
1
  6
Continuous
 62
     7
100
AcDbLine
 10
51849.75979992996
 20
22972.18027711233
 30
0.0
 11
51849.75979992996
 21
23572.18027783573
 31
0.0
  0
LINE
  5
220
330
20
100
AcDbEntity
  8
1
  6
Continuous
 62
     7
100
AcDbLine
 10
52049.75980017107
 20
22972.18027711233
 30
0.0
 11
51849.75979992996
 21
22972.18027711233
 31
0.0
  0
LINE
  5
221
330
20
100
AcDbEntity
  8
1
  6
Continuous
 62
     7
100
AcDbLine
 10
52449.75980065335
 20
22972.18027711233
 30
0.0
 11
52449.75980065335
 21
23572.18027783573
 31
0.0
  0
LINE
  5
222
330
20
100
AcDbEntity
  8
1
  6
Continuous
 62
     7
100
AcDbLine
 10
52449.75980065335
 20
22972.18027711233
 30
0.0
 11
52249.75980041223
 21
22972.18027711233
 31
0.0
  0
LINE
  5
223
330
20
100
AcDbEntity
  8
1
  6
Continuous
 62
     7
100
AcDbLine
 10
52249.75980041223
 20
23572.18027783573
 30
0.0
 11
52449.75980065335
 21
23572.18027783573
 31
0.0
  0
LINE
  5
224
330
20
100
AcDbEntity
  8
1
  6
Continuous
 62
     7
100
AcDbLine
 10
59649.75980933433
 20
22972.18027711233
 30
0.0
 11
59649.75980933433
 21
23572.18027783573
 31
0.0
  0
LINE
  5
225
330
20
100
AcDbEntity
  8
1
  6
Continuous
 62
     7
100
AcDbLine
 10
59049.75980861092
 20
22972.18027711233
 30
0.0
 11
59049.75980861092
 21
23572.18027783573
 31
0.0
  0
LINE
  5
226
330
20
100
AcDbEntity
  8
1
  6
Continuous
 62
     7
100
AcDbLine
 10
59649.75980933433
 20
22972.18027711233
 30
0.0
 11
59049.75980861092
 21
22972.18027711233
 31
0.0
  0
LINE
  5
227
330
20
100
AcDbEntity
  8
1
  6
Continuous
 62
     7
100
AcDbLine
 10
59049.75980861092
 20
23572.18027783573
 30
0.0
 11
59649.75980933433
 21
23572.18027783573
 31
0.0
  0
LINE
  5
228
330
20
100
AcDbEntity
  8
1
  6
Continuous
 62
     7
100
AcDbLine
 10
51849.75979993001
 20
44870.18030351443
 30
0.0
 11
45249.75979197244
 21
44870.18030351443
 31
0.0
  0
LINE
  5
229
330
20
100
AcDbEntity
  8
1
  6
Continuous
 62
     7
100
AcDbLine
 10
48849.7597963129
 20
37872.18029507704
 30
0.0
 11
50049.75979775974
 21
37872.18029507704
 31
0.0
  0
LINE
  5
22A
330
20
100
AcDbEntity
  8
1
  6
Continuous
 62
     7
100
AcDbLine
 10
48849.7597963129
 20
37672.18029483594
 30
0.0
 11
49849.75979751856
 21
37672.18029483594
 31
0.0
  0
LINE
  5
22B
330
20
100
AcDbEntity
  8
1
  6
Continuous
 62
     7
100
AcDbLine
 10
49849.75979751856
 20
30372.18028603442
 30
0.0
 11
45249.75979197241
 21
30372.18028603442
 31
0.0
  0
LINE
  5
22C
330
20
100
AcDbEntity
  8
1
  6
Continuous
 62
     7
100
AcDbLine
 10
49849.75979751856
 20
30572.18028627555
 30
0.0
 11
45249.75979197241
 21
30572.18028627555
 31
0.0
  0
LINE
  5
22D
330
20
100
AcDbEntity
  8
1
  6
Continuous
 62
     7
100
AcDbLine
 10
44849.75979149015
 20
30772.18028651668
 30
0.0
 11
44849.75979149015
 21
37372.18029447415
 31
0.0
  0
LINE
  5
22E
330
20
100
AcDbEntity
  8
1
  6
Continuous
 62
     7
100
AcDbLine
 10
45049.75979173126
 20
30772.18028651668
 30
0.0
 11
45049.75979173126
 21
37372.18029447415
 31
0.0
  0
LINE
  5
22F
330
20
100
AcDbEntity
  8
1
  6
Continuous
 62
     7
100
AcDbLine
 10
37649.7597828092
 20
37372.18029447425
 30
0.0
 11
37649.7597828092
 21
30772.18028651668
 31
0.0
  0
LINE
  5
230
330
20
100
AcDbEntity
  8
1
  6
Continuous
 62
     7
100
AcDbLine
 10
37449.75978256805
 20
37372.18029447425
 30
0.0
 11
37449.75978256805
 21
30772.18028651668
 31
0.0
  0
LINE
  5
231
330
20
100
AcDbEntity
  8
1
  6
Continuous
 62
     7
100
AcDbLine
 10
44649.75979124899
 20
30372.18028603437
 30
0.0
 11
38049.75978329145
 21
30372.18028603437
 31
0.0
  0
LINE
  5
232
330
20
100
AcDbEntity
  8
1
  6
Continuous
 62
     7
100
AcDbLine
 10
44649.75979124899
 20
30572.18028627551
 30
0.0
 11
38049.75978329145
 21
30572.18028627551
 31
0.0
  0
LINE
  5
233
330
20
100
AcDbEntity
  8
1
  6
Continuous
 62
     7
100
AcDbLine
 10
37549.7597826886
 20
29572.18028506987
 30
0.0
 11
37549.7597826886
 21
28572.18028386417
 31
0.0
  0
LINE
  5
234
330
20
100
AcDbEntity
  8
1
  6
Continuous
 62
     7
100
AcDbLine
 10
37449.75978256805
 20
28572.18028386417
 30
0.0
 11
37449.75978256805
 21
27772.18028289964
 31
0.0
  0
LINE
  5
235
330
20
100
AcDbEntity
  8
1
  6
Continuous
 62
     7
100
AcDbLine
 10
37449.75978256805
 20
27772.18028289964
 30
0.0
 11
37649.7597828092
 21
27772.18028289964
 31
0.0
  0
LINE
  5
236
330
20
100
AcDbEntity
  8
1
  6
Continuous
 62
     7
100
AcDbLine
 10
37649.7597828092
 20
27772.18028289964
 30
0.0
 11
37649.7597828092
 21
28572.18028386417
 31
0.0
  0
LINE
  5
237
330
20
100
AcDbEntity
  8
1
  6
Continuous
 62
     7
100
AcDbLine
 10
37649.7597828092
 20
28572.18028386417
 30
0.0
 11
37449.75978256805
 21
28572.18028386417
 31
0.0
  0
LINE
  5
238
330
20
100
AcDbEntity
  8
1
  6
Continuous
 62
     7
100
AcDbLine
 10
37649.7597828092
 20
30772.18028651668
 30
0.0
 11
38049.75978329145
 21
30772.18028651668
 31
0.0
  0
LINE
  5
239
330
20
100
AcDbEntity
  8
1
  6
Continuous
 62
     7
100
AcDbLine
 10
37649.7597828092
 20
30172.18028579326
 30
0.0
 11
37649.7597828092
 21
29572.18028506987
 31
0.0
  0
LINE
  5
23A
330
20
100
AcDbEntity
  8
1
  6
Continuous
 62
     7
100
AcDbLine
 10
38049.75978329145
 20
30172.18028579326
 30
0.0
 11
38049.75978329145
 21
30372.18028603437
 31
0.0
  0
LINE
  5
23B
330
20
100
AcDbEntity
  8
1
  6
Continuous
 62
     7
100
AcDbLine
 10
38049.75978329145
 20
30172.18028579326
 30
0.0
 11
37649.7597828092
 21
30172.18028579326
 31
0.0
  0
LINE
  5
23C
330
20
100
AcDbEntity
  8
1
  6
Continuous
 62
     7
100
AcDbLine
 10
37649.7597828092
 20
29572.18028506987
 30
0.0
 11
37449.75978256805
 21
29572.18028506987
 31
0.0
  0
LINE
  5
23D
330
20
100
AcDbEntity
  8
1
  6
Continuous
 62
     7
100
AcDbLine
 10
37449.75978256805
 20
29572.18028506987
 30
0.0
 11
37449.75978256805
 21
30772.18028651668
 31
0.0
  0
LINE
  5
23E
330
20
100
AcDbEntity
  8
1
  6
Continuous
 62
     7
100
AcDbLine
 10
38049.75978329145
 20
30572.18028627551
 30
0.0
 11
38049.75978329145
 21
30772.18028651668
 31
0.0
  0
LINE
  5
23F
330
20
100
AcDbEntity
  8
1
  6
Continuous
 62
     7
100
AcDbLine
 10
44649.75979124899
 20
30772.18028651668
 30
0.0
 11
44849.75979149015
 21
30772.18028651668
 31
0.0
  0
LINE
  5
240
330
20
100
AcDbEntity
  8
1
  6
Continuous
 62
     7
100
AcDbLine
 10
45049.75979173126
 20
30772.18028651668
 30
0.0
 11
45249.75979197241
 21
30772.18028651668
 31
0.0
  0
LINE
  5
241
330
20
100
AcDbEntity
  8
1
  6
Continuous
 62
     7
100
AcDbLine
 10
45249.75979197241
 20
30172.18028579326
 30
0.0
 11
44649.75979124899
 21
30172.18028579326
 31
0.0
  0
LINE
  5
242
330
20
100
AcDbEntity
  8
1
  6
Continuous
 62
     7
100
AcDbLine
 10
44649.75979124899
 20
30172.18028579326
 30
0.0
 11
44649.75979124899
 21
30372.18028603437
 31
0.0
  0
LINE
  5
243
330
20
100
AcDbEntity
  8
1
  6
Continuous
 62
     7
100
AcDbLine
 10
45249.75979197241
 20
30172.18028579326
 30
0.0
 11
45249.75979197241
 21
30372.18028603437
 31
0.0
  0
LINE
  5
244
330
20
100
AcDbEntity
  8
1
  6
Continuous
 62
     7
100
AcDbLine
 10
45249.75979197241
 20
30572.18028627551
 30
0.0
 11
45249.75979197241
 21
30772.18028651668
 31
0.0
  0
LINE
  5
245
330
20
100
AcDbEntity
  8
1
  6
Continuous
 62
     7
100
AcDbLine
 10
44649.75979124899
 20
30572.18028627551
 30
0.0
 11
44649.75979124899
 21
30772.18028651668
 31
0.0
  0
LINE
  5
246
330
20
100
AcDbEntity
  8
1
  6
Continuous
 62
     7
100
AcDbLine
 10
40882.06672338042
 20
39647.02851658114
 30
0.0
 11
43961.36779085187
 21
39647.02851658114
 31
0.0
  0
LINE
  5
247
330
20
100
AcDbEntity
  8
1
  6
Continuous
 62
     7
100
AcDbLine
 10
40882.06672338044
 20
39847.02851682234
 30
0.0
 11
43961.36779085187
 21
39847.02851682234
 31
0.0
  0
LINE
  5
248
330
20
100
AcDbEntity
  8
1
  6
Continuous
 62
     7
100
AcDbLine
 10
44649.75979124903
 20
44870.18030351443
 30
0.0
 11
38049.75978329153
 21
44870.18030351443
 31
0.0
  0
LINE
  5
249
330
20
100
AcDbEntity
  8
1
  6
Continuous
 62
     7
100
AcDbLine
 10
39299.75978479856
 20
37872.18029507704
 30
0.0
 11
44649.75979124899
 21
37872.18029507704
 31
0.0
  0
LINE
  5
24A
330
20
100
AcDbEntity
  8
1
  6
Continuous
 62
     7
100
AcDbLine
 10
39299.75978479856
 20
37672.18029483585
 30
0.0
 11
44649.75979124899
 21
37672.18029483594
 31
0.0
  0
LINE
  5
24B
330
20
100
AcDbEntity
  8
1
  6
Continuous
 62
     7
100
AcDbLine
 10
37449.75978256809
 20
44572.18030315514
 30
0.0
 11
37449.75978256809
 21
39647.02851658114
 31
0.0
  0
LINE
  5
24C
330
20
100
AcDbEntity
  8
1
  6
Continuous
 62
     7
100
AcDbLine
 10
37649.75978280925
 20
44572.18030315514
 30
0.0
 11
37649.75978280925
 21
39847.02851682234
 31
0.0
  0
LINE
  5
24D
330
20
100
AcDbEntity
  8
1
  6
Continuous
 62
     7
100
AcDbLine
 10
40882.06672338042
 20
40597.02851772624
 30
0.0
 11
40882.06672338042
 21
39847.02851682205
 31
0.0
  0
LINE
  5
24E
330
20
100
AcDbEntity
  8
1
  6
Continuous
 62
     7
100
AcDbLine
 10
37649.75978280925
 20
39847.02851682234
 30
0.0
 11
40132.06672247616
 21
39847.02851682234
 31
0.0
  0
LINE
  5
24F
330
20
100
AcDbEntity
  8
1
  6
Continuous
 62
     7
100
AcDbLine
 10
37449.75978256809
 20
39647.02851658114
 30
0.0
 11
40132.06672247616
 21
39647.02851658114
 31
0.0
  0
LINE
  5
250
330
20
100
AcDbEntity
  8
1
  6
Continuous
 62
     7
100
AcDbLine
 10
38049.75978329145
 20
37872.18029507704
 30
0.0
 11
38549.75978389431
 21
37872.18029507704
 31
0.0
  0
LINE
  5
251
330
20
100
AcDbEntity
  8
1
  6
Continuous
 62
     7
100
AcDbLine
 10
38049.75978329145
 20
37672.18029483594
 30
0.0
 11
38549.75978389431
 21
37672.18029483585
 31
0.0
  0
LINE
  5
252
330
20
100
AcDbEntity
  8
1
  6
Continuous
 62
     7
100
AcDbLine
 10
38049.75978329145
 20
37972.18029519764
 30
0.0
 11
38049.75978329145
 21
37872.18029507704
 31
0.0
  0
LINE
  5
253
330
20
100
AcDbEntity
  8
1
  6
Continuous
 62
     7
100
AcDbLine
 10
38049.75978329145
 20
37372.18029447425
 30
0.0
 11
37649.7597828092
 21
37372.18029447425
 31
0.0
  0
LINE
  5
254
330
20
100
AcDbEntity
  8
1
  6
Continuous
 62
     7
100
AcDbLine
 10
38049.75978329145
 20
37372.18029447425
 30
0.0
 11
38049.75978329145
 21
37672.18029483594
 31
0.0
  0
LINE
  5
255
330
20
100
AcDbEntity
  8
1
  6
Continuous
 62
     7
100
AcDbLine
 10
37449.75978256805
 20
37972.18029519764
 30
0.0
 11
37449.75978256805
 21
37872.18029507704
 31
0.0
  0
LINE
  5
256
330
20
100
AcDbEntity
  8
1
  6
Continuous
 62
     7
100
AcDbLine
 10
37449.75978256805
 20
37372.18029447425
 30
0.0
 11
37449.75978256805
 21
37672.18029483585
 31
0.0
  0
LINE
  5
257
330
20
100
AcDbEntity
  8
1
  6
Continuous
 62
     7
100
AcDbLine
 10
38049.75978329145
 20
37972.18029519764
 30
0.0
 11
37449.75978256805
 21
37972.18029519764
 31
0.0
  0
LINE
  5
258
330
20
100
AcDbEntity
  8
1
  6
Continuous
 62
     7
100
AcDbLine
 10
39299.75978479856
 20
37672.18029483594
 30
0.0
 11
39299.75978479856
 21
37872.18029507704
 31
0.0
  0
LINE
  5
259
330
20
100
AcDbEntity
  8
1
  6
Continuous
 62
     7
100
AcDbLine
 10
38549.75978389431
 20
37672.18029483594
 30
0.0
 11
38549.75978389431
 21
37872.18029507704
 31
0.0
  0
LINE
  5
25A
330
20
100
AcDbEntity
  8
1
  6
Continuous
 62
     7
100
AcDbLine
 10
40132.06672247616
 20
39847.02851682205
 30
0.0
 11
40132.06672247616
 21
39647.02851658084
 31
0.0
  0
LINE
  5
25B
330
20
100
AcDbEntity
  8
1
  6
Continuous
 62
     7
100
AcDbLine
 10
40882.06672338042
 20
39847.02851682213
 30
0.0
 11
40882.06672338042
 21
39647.02851658094
 31
0.0
  0
LINE
  5
25C
330
20
100
AcDbEntity
  8
1
  6
Continuous
 62
     7
100
AcDbLine
 10
38049.75978329153
 20
44572.18030315514
 30
0.0
 11
37649.75978280925
 21
44572.18030315514
 31
0.0
  0
LINE
  5
25D
330
20
100
AcDbEntity
  8
1
  6
Continuous
 62
     7
100
AcDbLine
 10
38049.75978329153
 20
44870.18030351443
 30
0.0
 11
38049.75978329153
 21
44572.18030315514
 31
0.0
  0
LINE
  5
25E
330
20
100
AcDbEntity
  8
1
  6
Continuous
 62
     7
100
AcDbLine
 10
37449.75978256809
 20
44572.18030315514
 30
0.0
 11
37449.75978256809
 21
44870.18030351443
 31
0.0
  0
LINE
  5
25F
330
20
100
AcDbEntity
  8
1
  6
Continuous
 62
     7
100
AcDbLine
 10
44711.36779175615
 20
40597.02851772624
 30
0.0
 11
44711.36779175615
 21
39847.02851682205
 31
0.0
  0
LINE
  5
260
330
20
100
AcDbEntity
  8
1
  6
Continuous
 62
     7
100
AcDbLine
 10
44711.36779175615
 20
39847.02851682234
 30
0.0
 11
48813.76467810991
 21
39847.02851682234
 31
0.0
  0
LINE
  5
261
330
20
100
AcDbEntity
  8
1
  6
Continuous
 62
     7
100
AcDbLine
 10
44711.36779175615
 20
39647.02851658114
 30
0.0
 11
48813.76467810991
 21
39647.02851658104
 31
0.0
  0
LINE
  5
262
330
20
100
AcDbEntity
  8
1
  6
Continuous
 62
     7
100
AcDbLine
 10
44649.75979124899
 20
37972.18029519764
 30
0.0
 11
45249.75979197241
 21
37972.18029519764
 31
0.0
  0
LINE
  5
263
330
20
100
AcDbEntity
  8
1
  6
Continuous
 62
     7
100
AcDbLine
 10
44649.75979124899
 20
37972.18029519764
 30
0.0
 11
44649.75979124899
 21
37872.18029507704
 31
0.0
  0
LINE
  5
264
330
20
100
AcDbEntity
  8
1
  6
Continuous
 62
     7
100
AcDbLine
 10
45249.75979197241
 20
37972.18029519764
 30
0.0
 11
45249.75979197241
 21
37872.18029507704
 31
0.0
  0
LINE
  5
265
330
20
100
AcDbEntity
  8
1
  6
Continuous
 62
     7
100
AcDbLine
 10
45249.75979197241
 20
37872.18029507704
 30
0.0
 11
45299.75979203269
 21
37872.18029507704
 31
0.0
  0
LINE
  5
266
330
20
100
AcDbEntity
  8
1
  6
Continuous
 62
     7
100
AcDbLine
 10
45249.75979197241
 20
37672.18029483594
 30
0.0
 11
45299.75979203269
 21
37672.18029483594
 31
0.0
  0
LINE
  5
267
330
20
100
AcDbEntity
  8
1
  6
Continuous
 62
     7
100
AcDbLine
 10
45299.75979203269
 20
37672.18029483585
 30
0.0
 11
45299.75979203269
 21
37872.18029507704
 31
0.0
  0
LINE
  5
268
330
20
100
AcDbEntity
  8
1
  6
Continuous
 62
     7
100
AcDbLine
 10
45249.75979197241
 20
37372.18029447425
 30
0.0
 11
45049.75979173126
 21
37372.18029447425
 31
0.0
  0
LINE
  5
269
330
20
100
AcDbEntity
  8
1
  6
Continuous
 62
     7
100
AcDbLine
 10
44849.75979149015
 20
37372.18029447425
 30
0.0
 11
44649.75979124899
 21
37372.18029447425
 31
0.0
  0
LINE
  5
26A
330
20
100
AcDbEntity
  8
1
  6
Continuous
 62
     7
100
AcDbLine
 10
44649.75979124899
 20
37372.18029447425
 30
0.0
 11
44649.75979124899
 21
37672.18029483594
 31
0.0
  0
LINE
  5
26B
330
20
100
AcDbEntity
  8
1
  6
Continuous
 62
     7
100
AcDbLine
 10
45249.75979197241
 20
37672.18029483594
 30
0.0
 11
45249.75979197241
 21
37372.18029447425
 31
0.0
  0
LINE
  5
26C
330
20
100
AcDbEntity
  8
1
  6
Continuous
 62
     7
100
AcDbLine
 10
43961.36779085187
 20
39847.02851682205
 30
0.0
 11
43961.36779085187
 21
39647.02851658084
 31
0.0
  0
LINE
  5
26D
330
20
100
AcDbEntity
  8
1
  6
Continuous
 62
     7
100
AcDbLine
 10
44711.36779175615
 20
39847.02851682213
 30
0.0
 11
44711.36779175615
 21
39647.02851658094
 31
0.0
  0
LINE
  5
26E
330
20
100
AcDbEntity
  8
1
  6
Continuous
 62
     7
100
AcDbLine
 10
46049.75979293694
 20
37872.18029507704
 30
0.0
 11
47649.75979486606
 21
37872.18029507704
 31
0.0
  0
LINE
  5
26F
330
20
100
AcDbEntity
  8
1
  6
Continuous
 62
     7
100
AcDbLine
 10
46049.75979293694
 20
37672.18029483594
 30
0.0
 11
47649.75979486606
 21
37672.18029483594
 31
0.0
  0
LINE
  5
270
330
20
100
AcDbEntity
  8
1
  6
Continuous
 62
     7
100
AcDbLine
 10
46049.75979293694
 20
37672.18029483585
 30
0.0
 11
46049.75979293694
 21
37872.18029507704
 31
0.0
  0
LINE
  5
271
330
20
100
AcDbEntity
  8
1
  6
Continuous
 62
     7
100
AcDbLine
 10
48849.7597963129
 20
37672.18029483585
 30
0.0
 11
48849.7597963129
 21
37872.18029507704
 31
0.0
  0
LINE
  5
272
330
20
100
AcDbEntity
  8
1
  6
Continuous
 62
     7
100
AcDbLine
 10
47649.75979486606
 20
37672.18029483585
 30
0.0
 11
47649.75979486606
 21
37872.18029507704
 31
0.0
  0
LINE
  5
273
330
20
100
AcDbEntity
  8
1
  6
Continuous
 62
     7
100
AcDbLine
 10
48813.76467810991
 20
39847.02851682205
 30
0.0
 11
48813.76467810991
 21
39647.02851658084
 31
0.0
  0
LINE
  5
274
330
20
100
AcDbEntity
  8
1
  6
Continuous
 62
     7
100
AcDbLine
 10
45249.75979197244
 20
44572.18030315514
 30
0.0
 11
44649.75979124903
 21
44572.18030315514
 31
0.0
  0
LINE
  5
275
330
20
100
AcDbEntity
  8
1
  6
Continuous
 62
     7
100
AcDbLine
 10
44649.75979124903
 20
44572.18030315514
 30
0.0
 11
44649.75979124903
 21
44870.18030351443
 31
0.0
  0
LINE
  5
276
330
20
100
AcDbEntity
  8
1
  6
Continuous
 62
     7
100
AcDbLine
 10
45249.75979197244
 20
44870.18030351443
 30
0.0
 11
45249.75979197244
 21
44572.18030315514
 31
0.0
  0
LINE
  5
277
330
20
100
AcDbEntity
  8
1
  6
Continuous
 62
     7
100
AcDbLine
 10
52049.75980017107
 20
37372.18029447425
 30
0.0
 11
52049.75980017107
 21
30772.18028651668
 31
0.0
  0
LINE
  5
278
330
20
100
AcDbEntity
  8
1
  6
Continuous
 62
     7
100
AcDbLine
 10
52249.75980041223
 20
37372.18029447425
 30
0.0
 11
52249.75980041223
 21
30772.18028651668
 31
0.0
  0
LINE
  5
279
330
20
100
AcDbEntity
  8
1
  6
Continuous
 62
     7
100
AcDbLine
 10
49849.75979751856
 20
37672.18029483594
 30
0.0
 11
49849.75979751856
 21
30572.18028627555
 31
0.0
  0
LINE
  5
27A
330
20
100
AcDbEntity
  8
1
  6
Continuous
 62
     7
100
AcDbLine
 10
50049.75979775974
 20
37872.18029507704
 30
0.0
 11
50049.75979775974
 21
30072.18028567273
 31
0.0
  0
LINE
  5
27B
330
20
100
AcDbEntity
  8
1
  6
Continuous
 62
     7
100
AcDbLine
 10
49849.75979751856
 20
30372.18028603442
 30
0.0
 11
49849.75979751856
 21
30072.18028567273
 31
0.0
  0
LINE
  5
27C
330
20
100
AcDbEntity
  8
1
  6
Continuous
 62
     7
100
AcDbLine
 10
51849.75979992996
 20
30772.18028651668
 30
0.0
 11
52049.75980017107
 21
30772.18028651668
 31
0.0
  0
LINE
  5
27D
330
20
100
AcDbEntity
  8
1
  6
Continuous
 62
     7
100
AcDbLine
 10
52049.75980017107
 20
30172.18028579326
 30
0.0
 11
51849.75979992996
 21
30172.18028579326
 31
0.0
  0
LINE
  5
27E
330
20
100
AcDbEntity
  8
1
  6
Continuous
 62
     7
100
AcDbLine
 10
51849.75979992996
 20
30172.18028579326
 30
0.0
 11
51849.75979992996
 21
30772.18028651668
 31
0.0
  0
LINE
  5
27F
330
20
100
AcDbEntity
  8
1
  6
Continuous
 62
     7
100
AcDbLine
 10
52249.75980041223
 20
30772.18028651668
 30
0.0
 11
52449.75980065335
 21
30772.18028651668
 31
0.0
  0
LINE
  5
280
330
20
100
AcDbEntity
  8
1
  6
Continuous
 62
     7
100
AcDbLine
 10
52449.75980065335
 20
30172.18028579326
 30
0.0
 11
52249.75980041223
 21
30172.18028579326
 31
0.0
  0
LINE
  5
281
330
20
100
AcDbEntity
  8
1
  6
Continuous
 62
     7
100
AcDbLine
 10
52449.75980065335
 20
30172.18028579326
 30
0.0
 11
52449.75980065335
 21
30772.18028651668
 31
0.0
  0
LINE
  5
282
330
20
100
AcDbEntity
  8
1
  6
Continuous
 62
     7
100
AcDbLine
 10
59049.75980861092
 20
30772.18028651668
 30
0.0
 11
59649.75980933433
 21
30772.18028651668
 31
0.0
  0
LINE
  5
283
330
20
100
AcDbEntity
  8
1
  6
Continuous
 62
     7
100
AcDbLine
 10
59649.75980933433
 20
30172.18028579326
 30
0.0
 11
59049.75980861092
 21
30172.18028579326
 31
0.0
  0
LINE
  5
284
330
20
100
AcDbEntity
  8
1
  6
Continuous
 62
     7
100
AcDbLine
 10
59049.75980861092
 20
30172.18028579326
 30
0.0
 11
59049.75980861092
 21
30772.18028651668
 31
0.0
  0
LINE
  5
285
330
20
100
AcDbEntity
  8
1
  6
Continuous
 62
     7
100
AcDbLine
 10
59649.75980933433
 20
30172.18028579326
 30
0.0
 11
59649.75980933433
 21
30772.18028651668
 31
0.0
  0
LINE
  5
286
330
20
100
AcDbEntity
  8
1
  6
Continuous
 62
     7
100
AcDbLine
 10
55649.75980451163
 20
44870.18030351443
 30
0.0
 11
52449.75980065341
 21
44870.18030351443
 31
0.0
  0
LINE
  5
287
330
20
100
AcDbEntity
  8
1
  6
Continuous
 62
     7
100
AcDbLine
 10
52449.75980065335
 20
37872.18029507704
 30
0.0
 11
57249.75980644068
 21
37872.18029507704
 31
0.0
  0
LINE
  5
288
330
20
100
AcDbEntity
  8
1
  6
Continuous
 62
     7
100
AcDbLine
 10
52449.75980065335
 20
37672.18029483594
 30
0.0
 11
57249.75980644068
 21
37672.18029483585
 31
0.0
  0
LINE
  5
289
330
20
100
AcDbEntity
  8
1
  6
Continuous
 62
     7
100
AcDbLine
 10
52249.75980041228
 20
44572.18030315514
 30
0.0
 11
52249.75980041228
 21
39847.02851682234
 31
0.0
  0
LINE
  5
28A
330
20
100
AcDbEntity
  8
1
  6
Continuous
 62
     7
100
AcDbLine
 10
52049.75980017117
 20
44572.18030315514
 30
0.0
 11
52049.75980017117
 21
39847.02851682234
 31
0.0
  0
LINE
  5
28B
330
20
100
AcDbEntity
  8
1
  6
Continuous
 62
     7
100
AcDbLine
 10
54726.50452059895
 20
40597.02851772624
 30
0.0
 11
54726.50452059895
 21
39847.02851682205
 31
0.0
  0
LINE
  5
28C
330
20
100
AcDbEntity
  8
1
  6
Continuous
 62
     7
100
AcDbLine
 10
49563.7646790142
 20
40597.02851772624
 30
0.0
 11
49563.7646790142
 21
39847.02851682205
 31
0.0
  0
LINE
  5
28D
330
20
100
AcDbEntity
  8
1
  6
Continuous
 62
     7
100
AcDbLine
 10
52449.75980065335
 20
37972.18029519764
 30
0.0
 11
51849.75979992996
 21
37972.18029519764
 31
0.0
  0
LINE
  5
28E
330
20
100
AcDbEntity
  8
1
  6
Continuous
 62
     7
100
AcDbLine
 10
49563.7646790142
 20
39647.02851658104
 30
0.0
 11
54726.50452059895
 21
39647.02851658094
 31
0.0
  0
LINE
  5
28F
330
20
100
AcDbEntity
  8
1
  6
Continuous
 62
     7
100
AcDbLine
 10
52049.75980017107
 20
37372.18029447425
 30
0.0
 11
51849.75979992996
 21
37372.18029447425
 31
0.0
  0
LINE
  5
290
330
20
100
AcDbEntity
  8
1
  6
Continuous
 62
     7
100
AcDbLine
 10
51849.75979992996
 20
37372.18029447425
 30
0.0
 11
51849.75979992996
 21
37972.18029519764
 31
0.0
  0
LINE
  5
291
330
20
100
AcDbEntity
  8
1
  6
Continuous
 62
     7
100
AcDbLine
 10
49563.7646790142
 20
39847.02851682234
 30
0.0
 11
52049.75980017117
 21
39847.02851682234
 31
0.0
  0
LINE
  5
292
330
20
100
AcDbEntity
  8
1
  6
Continuous
 62
     7
100
AcDbLine
 10
49563.7646790142
 20
39847.02851682213
 30
0.0
 11
49563.7646790142
 21
39647.02851658094
 31
0.0
  0
LINE
  5
293
330
20
100
AcDbEntity
  8
1
  6
Continuous
 62
     7
100
AcDbLine
 10
52449.75980065335
 20
37972.18029519764
 30
0.0
 11
52449.75980065335
 21
37872.18029507704
 31
0.0
  0
LINE
  5
294
330
20
100
AcDbEntity
  8
1
  6
Continuous
 62
     7
100
AcDbLine
 10
52449.75980065335
 20
37372.18029447425
 30
0.0
 11
52249.75980041223
 21
37372.18029447425
 31
0.0
  0
LINE
  5
295
330
20
100
AcDbEntity
  8
1
  6
Continuous
 62
     7
100
AcDbLine
 10
52449.75980065335
 20
37372.18029447425
 30
0.0
 11
52449.75980065335
 21
37672.18029483594
 31
0.0
  0
LINE
  5
296
330
20
100
AcDbEntity
  8
1
  6
Continuous
 62
     7
100
AcDbLine
 10
52249.75980041228
 20
39847.02851682234
 30
0.0
 11
54726.50452059894
 21
39847.02851682234
 31
0.0
  0
LINE
  5
297
330
20
100
AcDbEntity
  8
1
  6
Continuous
 62
     7
100
AcDbLine
 10
54726.50452059895
 20
39847.02851682213
 30
0.0
 11
54726.50452059895
 21
39647.02851658094
 31
0.0
  0
LINE
  5
298
330
20
100
AcDbEntity
  8
1
  6
Continuous
 62
     7
100
AcDbLine
 10
52049.75980017117
 20
44572.18030315514
 30
0.0
 11
51849.75979993001
 21
44572.18030315514
 31
0.0
  0
LINE
  5
299
330
20
100
AcDbEntity
  8
1
  6
Continuous
 62
     7
100
AcDbLine
 10
51849.75979993001
 20
44572.18030315514
 30
0.0
 11
51849.75979993001
 21
44870.18030351443
 31
0.0
  0
LINE
  5
29A
330
20
100
AcDbEntity
  8
1
  6
Continuous
 62
     7
100
AcDbLine
 10
52449.75980065341
 20
44572.18030315514
 30
0.0
 11
52249.75980041228
 21
44572.18030315514
 31
0.0
  0
LINE
  5
29B
330
20
100
AcDbEntity
  8
1
  6
Continuous
 62
     7
100
AcDbLine
 10
52449.75980065341
 20
44870.18030351443
 30
0.0
 11
52449.75980065341
 21
44572.18030315514
 31
0.0
  0
LINE
  5
29C
330
20
100
AcDbEntity
  8
1
  6
Continuous
 62
     7
100
AcDbLine
 10
59449.75980909324
 20
39847.02851682234
 30
0.0
 11
59449.75980909324
 21
43563.52106555232
 31
0.0
  0
LINE
  5
29D
330
20
100
AcDbEntity
  8
1
  6
Continuous
 62
     7
100
AcDbLine
 10
59649.75980933441
 20
39647.02851658094
 30
0.0
 11
59649.75980933441
 21
43563.52106555232
 31
0.0
  0
LINE
  5
29E
330
20
100
AcDbEntity
  8
1
  6
Continuous
 62
     7
100
AcDbLine
 10
55849.75980475279
 20
39847.02851682234
 30
0.0
 11
55849.75980475279
 21
44870.18030351443
 31
0.0
  0
LINE
  5
29F
330
20
100
AcDbEntity
  8
1
  6
Continuous
 62
     7
100
AcDbLine
 10
55649.75980451163
 20
39847.02851682234
 30
0.0
 11
55649.75980451163
 21
44870.18030351443
 31
0.0
  0
LINE
  5
2A0
330
20
100
AcDbEntity
  8
1
  6
Continuous
 62
     7
100
AcDbLine
 10
56107.35031935092
 20
40597.02851772624
 30
0.0
 11
56107.35031935092
 21
39847.02851682205
 31
0.0
  0
LINE
  5
2A1
330
20
100
AcDbEntity
  8
1
  6
Continuous
 62
     7
100
AcDbLine
 10
56857.35032025517
 20
39647.02851658094
 30
0.0
 11
59649.75980933441
 21
39647.02851658094
 31
0.0
  0
LINE
  5
2A2
330
20
100
AcDbEntity
  8
1
  6
Continuous
 62
     7
100
AcDbLine
 10
56857.35032025517
 20
39847.02851682234
 30
0.0
 11
59449.75980909324
 21
39847.02851682234
 31
0.0
  0
LINE
  5
2A3
330
20
100
AcDbEntity
  8
1
  6
Continuous
 62
     7
100
AcDbLine
 10
57249.75980644068
 20
37672.18029483585
 30
0.0
 11
57249.75980644068
 21
37872.18029507704
 31
0.0
  0
LINE
  5
2A4
330
20
100
AcDbEntity
  8
1
  6
Continuous
 62
     7
100
AcDbLine
 10
55849.75980475279
 20
39847.02851682234
 30
0.0
 11
56107.35031935092
 21
39847.02851682234
 31
0.0
  0
LINE
  5
2A5
330
20
100
AcDbEntity
  8
1
  6
Continuous
 62
     7
100
AcDbLine
 10
56107.35031935092
 20
39847.02851682213
 30
0.0
 11
56107.35031935092
 21
39647.02851658094
 31
0.0
  0
LINE
  5
2A6
330
20
100
AcDbEntity
  8
1
  6
Continuous
 62
     7
100
AcDbLine
 10
56857.35032025517
 20
39847.02851682205
 30
0.0
 11
56857.35032025517
 21
39647.02851658084
 31
0.0
  0
LINE
  5
2A7
330
20
100
AcDbEntity
  8
1
  6
Continuous
 62
     7
100
AcDbLine
 10
55476.5045215032
 20
39847.02851682205
 30
0.0
 11
55476.5045215032
 21
39647.02851658084
 31
0.0
  0
LINE
  5
2A8
330
20
100
AcDbEntity
  8
1
  6
Continuous
 62
     7
100
AcDbLine
 10
55476.50452150323
 20
39847.02851682234
 30
0.0
 11
55649.75980451163
 21
39847.02851682234
 31
0.0
  0
LINE
  5
2A9
330
20
100
AcDbEntity
  8
1
  6
Continuous
 62
     7
100
AcDbLine
 10
55476.50452150323
 20
39647.02851658094
 30
0.0
 11
56107.35031935092
 21
39647.02851658094
 31
0.0
  0
LINE
  5
2AA
330
20
100
AcDbEntity
  8
1
  6
Continuous
 62
     7
100
AcDbLine
 10
59049.75980861092
 20
37972.18029519764
 30
0.0
 11
59649.75980933433
 21
37972.18029519764
 31
0.0
  0
LINE
  5
2AB
330
20
100
AcDbEntity
  8
1
  6
Continuous
 62
     7
100
AcDbLine
 10
59049.75980861092
 20
37972.18029519764
 30
0.0
 11
59049.75980861092
 21
37872.18029507704
 31
0.0
  0
LINE
  5
2AC
330
20
100
AcDbEntity
  8
1
  6
Continuous
 62
     7
100
AcDbLine
 10
58449.75980788748
 20
37672.18029483585
 30
0.0
 11
58449.75980788748
 21
37872.18029507704
 31
0.0
  0
LINE
  5
2AD
330
20
100
AcDbEntity
  8
1
  6
Continuous
 62
     7
100
AcDbLine
 10
58449.75980788748
 20
37872.18029507704
 30
0.0
 11
59049.75980861092
 21
37872.18029507704
 31
0.0
  0
LINE
  5
2AE
330
20
100
AcDbEntity
  8
1
  6
Continuous
 62
     7
100
AcDbLine
 10
58449.75980788748
 20
37672.18029483585
 30
0.0
 11
59049.75980861092
 21
37672.18029483594
 31
0.0
  0
LINE
  5
2AF
330
20
100
AcDbEntity
  8
1
  6
Continuous
 62
     7
100
AcDbLine
 10
59649.75980933433
 20
37372.18029447425
 30
0.0
 11
59049.75980861092
 21
37372.18029447425
 31
0.0
  0
LINE
  5
2B0
330
20
100
AcDbEntity
  8
1
  6
Continuous
 62
     7
100
AcDbLine
 10
59049.75980861092
 20
37372.18029447425
 30
0.0
 11
59049.75980861092
 21
37672.18029483594
 31
0.0
  0
LINE
  5
2B1
330
20
100
AcDbEntity
  8
1
  6
Continuous
 62
     7
100
AcDbLine
 10
59649.75980933433
 20
37972.18029519764
 30
0.0
 11
59649.75980933433
 21
37572.18029471544
 31
0.0
  0
LINE
  5
2B2
330
20
100
AcDbEntity
  8
1
  6
Continuous
 62
     7
100
AcDbLine
 10
59049.75980861094
 20
44870.18030351443
 30
0.0
 11
55849.75980475279
 21
44870.18030351443
 31
0.0
  0
LINE
  5
2B3
330
20
100
AcDbEntity
  8
1
  6
Continuous
 62
     7
100
AcDbLine
 10
60399.75981023865
 20
44313.52106645655
 30
0.0
 11
59649.75980933441
 21
44313.52106645655
 31
0.0
  0
LINE
  5
2B4
330
20
100
AcDbEntity
  8
1
  6
Continuous
 62
     7
100
AcDbLine
 10
59449.75980909324
 20
44572.18030315514
 30
0.0
 11
59049.75980861094
 21
44572.18030315514
 31
0.0
  0
LINE
  5
2B5
330
20
100
AcDbEntity
  8
1
  6
Continuous
 62
     7
100
AcDbLine
 10
59649.75980933452
 20
44313.52106645655
 30
0.0
 11
59449.75980909333
 21
44313.52106645655
 31
0.0
  0
LINE
  5
2B6
330
20
100
AcDbEntity
  8
1
  6
Continuous
 62
     7
100
AcDbLine
 10
59649.75980933441
 20
43563.52106555232
 30
0.0
 11
59449.75980909324
 21
43563.52106555232
 31
0.0
  0
LINE
  5
2B7
330
20
100
AcDbEntity
  8
1
  6
Continuous
 62
     7
100
AcDbLine
 10
59649.75980933441
 20
44313.52106645655
 30
0.0
 11
59649.75980933441
 21
44572.18030315514
 31
0.0
  0
LINE
  5
2B8
330
20
100
AcDbEntity
  8
1
  6
Continuous
 62
     7
100
AcDbLine
 10
59449.75980909324
 20
44313.52106645655
 30
0.0
 11
59449.75980909324
 21
44572.18030315514
 31
0.0
  0
LINE
  5
2B9
330
20
100
AcDbEntity
  8
1
  6
Continuous
 62
     7
100
AcDbLine
 10
59049.75980861094
 20
44572.18030315514
 30
0.0
 11
59049.75980861094
 21
44870.18030351443
 31
0.0
  0
LINE
  5
2BA
330
20
100
AcDbEntity
  8
1
  6
Continuous
 62
     7
100
AcDbLine
 10
64249.7598148805
 20
30672.18028639613
 30
0.0
 11
64249.7598148805
 21
18572.18027180726
 31
0.0
  0
LINE
  5
2BB
330
20
100
AcDbEntity
  8
1
  6
Continuous
 62
     7
100
AcDbLine
 10
64449.75981512162
 20
30672.18028639609
 30
0.0
 11
64449.75981512162
 21
18572.18027180726
 31
0.0
  0
LINE
  5
2BC
330
20
100
AcDbEntity
  8
1
  6
Continuous
 62
     7
100
AcDbLine
 10
64449.75981512162
 20
17672.18027072217
 30
0.0
 11
64449.75981512162
 21
17472.18027048105
 31
0.0
  0
LINE
  5
2BD
330
20
100
AcDbEntity
  8
1
  6
Continuous
 62
     7
100
AcDbLine
 10
64249.7598148805
 20
17672.18027072217
 30
0.0
 11
64449.75981512162
 21
17672.18027072217
 31
0.0
  0
LINE
  5
2BE
330
20
100
AcDbEntity
  8
1
  6
Continuous
 62
     7
100
AcDbLine
 10
64249.7598148805
 20
17672.18027072217
 30
0.0
 11
64249.7598148805
 21
16172.18026891363
 31
0.0
  0
LINE
  5
2BF
330
20
100
AcDbEntity
  8
1
  6
Continuous
 62
     7
100
AcDbLine
 10
64449.75981512162
 20
17272.1802702399
 30
0.0
 11
64449.75981512162
 21
16172.18026891363
 31
0.0
  0
LINE
  5
2C0
330
20
100
AcDbEntity
  8
1
  6
Continuous
 62
     7
100
AcDbLine
 10
64249.7598148805
 20
18572.18027180726
 30
0.0
 11
64449.75981512162
 21
18572.18027180726
 31
0.0
  0
LINE
  5
2C1
330
20
100
AcDbEntity
  8
1
  6
Continuous
 62
     7
100
AcDbLine
 10
64449.75981512162
 20
37572.18029471534
 30
0.0
 11
64449.75981512162
 21
31572.18028748118
 31
0.0
  0
LINE
  5
2C2
330
20
100
AcDbEntity
  8
1
  6
Continuous
 62
     7
100
AcDbLine
 10
64249.7598148805
 20
37372.18029447425
 30
0.0
 11
64249.7598148805
 21
31572.18028748118
 31
0.0
  0
LINE
  5
2C3
330
20
100
AcDbEntity
  8
1
  6
Continuous
 62
     7
100
AcDbLine
 10
64249.7598148805
 20
30672.18028639613
 30
0.0
 11
64449.75981512162
 21
30672.18028639613
 31
0.0
  0
LINE
  5
2C4
330
20
100
AcDbEntity
  8
1
  6
Continuous
 62
     7
100
AcDbLine
 10
64249.7598148805
 20
31572.18028748118
 30
0.0
 11
64449.75981512162
 21
31572.18028748118
 31
0.0
  0
LINE
  5
2C5
330
20
100
AcDbEntity
  8
1
  6
Continuous
 62
     7
100
AcDbLine
 10
61768.59308141097
 20
42172.18030387853
 30
0.0
 11
64768.59308141097
 21
42172.18030387853
 31
0.0
  0
LINE
  5
2C6
330
20
100
AcDbEntity
  8
1
  6
Continuous
 62
     7
100
AcDbLine
 10
37449.75978256809
 20
45070.18030375554
 30
0.0
 11
34453.97709065693
 21
45070.18030375554
 31
0.0
  0
LINE
  5
2C7
330
20
100
AcDbEntity
  8
1
  6
Continuous
 62
     7
100
AcDbLine
 10
20349.75976195083
 20
45070.18030375564
 30
0.0
 11
26949.75976990837
 21
45070.18030375554
 31
0.0
  0
LINE
  5
2C8
330
20
100
AcDbEntity
  8
1
  6
Continuous
 62
     7
100
AcDbLine
 10
20349.75976195083
 20
45162.16250411024
 30
0.0
 11
20349.75976195083
 21
45070.18030375564
 31
0.0
  0
LINE
  5
2C9
330
20
100
AcDbEntity
  8
1
  6
Continuous
 62
     7
100
AcDbLine
 10
19749.75976122739
 20
45162.16250411003
 30
0.0
 11
20349.75976195083
 21
45162.16250411024
 31
0.0
  0
LINE
  5
2CA
330
20
100
AcDbEntity
  8
1
  6
Continuous
 62
     7
100
AcDbLine
 10
27549.75977063177
 20
45070.18030375554
 30
0.0
 11
33853.97708993351
 21
45070.18030375554
 31
0.0
  0
LINE
  5
2CB
330
20
100
AcDbEntity
  8
1
  6
Continuous
 62
     7
100
AcDbLine
 10
26949.75976990837
 20
45162.16250411024
 30
0.0
 11
27549.75977063177
 21
45162.16250411024
 31
0.0
  0
LINE
  5
2CC
330
20
100
AcDbEntity
  8
1
  6
Continuous
 62
     7
100
AcDbLine
 10
26949.75976990837
 20
45070.18030375554
 30
0.0
 11
26949.75976990837
 21
45162.16250411024
 31
0.0
  0
LINE
  5
2CD
330
20
100
AcDbEntity
  8
1
  6
Continuous
 62
     7
100
AcDbLine
 10
27549.75977063177
 20
45162.16250411024
 30
0.0
 11
27549.75977063177
 21
45070.18030375554
 31
0.0
  0
LINE
  5
2CE
330
20
100
AcDbEntity
  8
1
  6
Continuous
 62
     7
100
AcDbLine
 10
34453.97709065693
 20
45070.18030375554
 30
0.0
 11
34453.97709065693
 21
45172.18030387853
 31
0.0
  0
LINE
  5
2CF
330
20
100
AcDbEntity
  8
1
  6
Continuous
 62
     7
100
AcDbLine
 10
33853.97708993351
 20
45172.18030387853
 30
0.0
 11
33853.97708993351
 21
45070.18030375554
 31
0.0
  0
LINE
  5
2D0
330
20
100
AcDbEntity
  8
1
  6
Continuous
 62
     7
100
AcDbLine
 10
34453.97709065693
 20
45172.18030387853
 30
0.0
 11
33853.97708993351
 21
45172.18030387853
 31
0.0
  0
LINE
  5
2D1
330
20
100
AcDbEntity
  8
1
  6
Continuous
 62
     7
100
AcDbLine
 10
51849.75979993001
 20
45070.18030375554
 30
0.0
 11
45249.75979197244
 21
45070.18030375554
 31
0.0
  0
LINE
  5
2D2
330
20
100
AcDbEntity
  8
1
  6
Continuous
 62
     7
100
AcDbLine
 10
44649.75979124903
 20
45070.18030375554
 30
0.0
 11
38049.75978329153
 21
45070.18030375554
 31
0.0
  0
LINE
  5
2D3
330
20
100
AcDbEntity
  8
1
  6
Continuous
 62
     7
100
AcDbLine
 10
38049.75978329153
 20
45172.18030387853
 30
0.0
 11
38049.75978329153
 21
45070.18030375554
 31
0.0
  0
LINE
  5
2D4
330
20
100
AcDbEntity
  8
1
  6
Continuous
 62
     7
100
AcDbLine
 10
37449.75978256809
 20
45070.18030375554
 30
0.0
 11
37449.75978256809
 21
45172.18030387853
 31
0.0
  0
LINE
  5
2D5
330
20
100
AcDbEntity
  8
1
  6
Continuous
 62
     7
100
AcDbLine
 10
37449.75978256809
 20
45172.18030387853
 30
0.0
 11
38049.75978329153
 21
45172.18030387853
 31
0.0
  0
LINE
  5
2D6
330
20
100
AcDbEntity
  8
1
  6
Continuous
 62
     7
100
AcDbLine
 10
44649.75979124903
 20
45172.18030387853
 30
0.0
 11
45249.75979197244
 21
45172.18030387853
 31
0.0
  0
LINE
  5
2D7
330
20
100
AcDbEntity
  8
1
  6
Continuous
 62
     7
100
AcDbLine
 10
44649.75979124903
 20
45070.18030375554
 30
0.0
 11
44649.75979124903
 21
45172.18030387853
 31
0.0
  0
LINE
  5
2D8
330
20
100
AcDbEntity
  8
1
  6
Continuous
 62
     7
100
AcDbLine
 10
45249.75979197244
 20
45172.18030387853
 30
0.0
 11
45249.75979197244
 21
45070.18030375554
 31
0.0
  0
LINE
  5
2D9
330
20
100
AcDbEntity
  8
1
  6
Continuous
 62
     7
100
AcDbLine
 10
59049.75980861094
 20
45070.18030375554
 30
0.0
 11
52449.75980065341
 21
45070.18030375554
 31
0.0
  0
LINE
  5
2DA
330
20
100
AcDbEntity
  8
1
  6
Continuous
 62
     7
100
AcDbLine
 10
51849.75979993001
 20
45172.18030387853
 30
0.0
 11
52449.75980065341
 21
45172.18030387853
 31
0.0
  0
LINE
  5
2DB
330
20
100
AcDbEntity
  8
1
  6
Continuous
 62
     7
100
AcDbLine
 10
51849.75979993001
 20
45070.18030375554
 30
0.0
 11
51849.75979993001
 21
45172.18030387853
 31
0.0
  0
LINE
  5
2DC
330
20
100
AcDbEntity
  8
1
  6
Continuous
 62
     7
100
AcDbLine
 10
52449.75980065341
 20
45172.18030387853
 30
0.0
 11
52449.75980065341
 21
45070.18030375554
 31
0.0
  0
LINE
  5
2DD
330
20
100
AcDbEntity
  8
1
  6
Continuous
 62
     7
100
AcDbLine
 10
59049.75980861094
 20
45172.18030387853
 30
0.0
 11
59649.75980933441
 21
45172.18030387853
 31
0.0
  0
LINE
  5
2DE
330
20
100
AcDbEntity
  8
1
  6
Continuous
 62
     7
100
AcDbLine
 10
59049.75980861094
 20
45070.18030375554
 30
0.0
 11
59049.75980861094
 21
45172.18030387853
 31
0.0
  0
LINE
  5
2DF
330
20
100
AcDbEntity
  8
1
  6
Continuous
 62
     7
100
AcDbLine
 10
59649.75980933441
 20
45172.18030387853
 30
0.0
 11
59649.75980933441
 21
45070.18030375554
 31
0.0
  0
LINE
  5
2E0
330
20
100
AcDbEntity
  8
1
  6
Continuous
 62
     7
100
AcDbLine
 10
61768.59308141097
 20
45172.18030387853
 30
0.0
 11
64768.59308141095
 21
45172.18030387853
 31
0.0
  0
LINE
  5
2E1
330
20
100
AcDbEntity
  8
1
  6
Continuous
 62
     7
100
AcDbLine
 10
35649.76157895103
 20
23392.80843248969
 30
0.0
 11
37449.75977895101
 21
23392.80843248969
 31
0.0
  0
LINE
  5
2E2
330
20
100
AcDbEntity
  8
1
  6
Continuous
 62
     7
100
AcDbLine
 10
35849.76137895103
 20
23292.80853248968
 30
0.0
 11
37449.75977895101
 21
23292.80853248968
 31
0.0
  0
LINE
  5
2E3
330
20
100
AcDbEntity
  8
1
  6
Continuous
 62
     7
100
AcDbLine
 10
37449.75977895101
 20
15849.01704660482
 30
0.0
 11
35649.76157895099
 21
15849.01704660482
 31
0.0
  0
LINE
  5
2E4
330
20
100
AcDbEntity
  8
1
  6
Continuous
 62
     7
100
AcDbLine
 10
37449.75977895103
 20
15949.01694660481
 30
0.0
 11
35849.76137895096
 21
15949.01694660481
 31
0.0
  0
LINE
  5
2E5
330
20
100
AcDbEntity
  8
1
  6
Continuous
 62
     7
100
AcDbLine
 10
37449.75977895103
 20
16249.01694660481
 30
0.0
 11
35749.76147895099
 21
16249.01694660481
 31
0.0
  0
LINE
  5
2E6
330
20
100
AcDbEntity
  8
1
  6
Continuous
 62
     7
100
AcDbLine
 10
37449.75977895103
 20
16349.01694660482
 30
0.0
 11
35749.76147895099
 21
16349.01694660482
 31
0.0
  0
LINE
  5
2E7
330
20
100
AcDbEntity
  8
1
  6
Continuous
 62
     7
100
AcDbLine
 10
35749.76147895099
 20
16049.01684660481
 30
0.0
 11
35749.76147895102
 21
23192.8086324897
 31
0.0
  0
LINE
  5
2E8
330
20
100
AcDbEntity
  8
1
  6
Continuous
 62
     7
100
AcDbLine
 10
35649.76157895099
 20
15849.0170466048
 30
0.0
 11
35649.76157895103
 21
23392.80843248969
 31
0.0
  0
LINE
  5
2E9
330
20
100
AcDbEntity
  8
1
  6
Continuous
 62
     7
100
AcDbLine
 10
37449.75977895101
 20
15772.18026843135
 30
0.0
 11
37449.75977895101
 21
16372.18026843126
 31
0.0
  0
LINE
  5
2EA
330
20
100
AcDbEntity
  8
1
  6
Continuous
 62
     7
100
AcDbLine
 10
37449.75977895105
 20
16172.18026843135
 30
0.0
 11
37449.75977895105
 21
16372.18026843135
 31
0.0
  0
LINE
  5
2EB
330
20
100
AcDbEntity
  8
1
  6
Continuous
 62
     7
100
AcDbLine
 10
37449.75977895101
 20
16372.18026843126
 30
0.0
 11
38049.75977895105
 21
16372.18026843135
 31
0.0
  0
LINE
  5
2EC
330
20
100
AcDbEntity
  8
1
  6
Continuous
 62
     7
100
AcDbLine
 10
38049.75977895105
 20
15772.18026843135
 30
0.0
 11
37449.75977895101
 21
15772.18026843135
 31
0.0
  0
LINE
  5
2ED
330
20
100
AcDbEntity
  8
1
  6
Continuous
 62
     7
100
AcDbLine
 10
38049.75977895105
 20
15972.18026843135
 30
0.0
 11
38049.75977895105
 21
15772.18026843135
 31
0.0
  0
LINE
  5
2EE
330
20
100
AcDbEntity
  8
1
  6
Continuous
 62
     7
100
AcDbLine
 10
38049.75977895105
 20
16372.18026843135
 30
0.0
 11
38049.75977895105
 21
16172.18026843135
 31
0.0
  0
LINE
  5
2EF
330
20
100
AcDbEntity
  8
1
  6
Continuous
 62
     7
100
AcDbLine
 10
38049.75977895099
 20
22972.18026843137
 30
0.0
 11
37449.75977895099
 21
22972.18026843126
 31
0.0
  0
LINE
  5
2F0
330
20
100
AcDbEntity
  8
1
  6
Continuous
 62
     7
100
AcDbLine
 10
38049.75977895099
 20
22972.18026843137
 30
0.0
 11
38049.75977895099
 21
23172.18026843135
 31
0.0
  0
LINE
  5
2F1
330
20
100
AcDbEntity
  8
1
  6
Continuous
 62
     7
100
AcDbLine
 10
38049.75977895099
 20
23372.18026843134
 30
0.0
 11
38049.75977895099
 21
23572.18026843134
 31
0.0
  0
LINE
  5
2F2
330
20
100
AcDbEntity
  8
1
  6
Continuous
 62
     7
100
AcDbLine
 10
37649.75977895099
 20
23572.18026843134
 30
0.0
 11
38049.75977895099
 21
23572.18026843134
 31
0.0
  0
LINE
  5
2F3
330
20
100
AcDbEntity
  8
1
  6
Continuous
 62
     7
100
AcDbLine
 10
64449.75981512162
 20
17472.18027048105
 30
0.0
 11
66449.75981753299
 21
17472.18027048105
 31
0.0
  0
LINE
  5
2F4
330
20
100
AcDbEntity
  8
1
  6
Continuous
 62
     7
100
AcDbLine
 10
64449.75981512162
 20
17272.1802702399
 30
0.0
 11
66449.75981753299
 21
17272.1802702399
 31
0.0
  0
LINE
  5
2F5
330
20
100
AcDbEntity
  8
1
  6
Continuous
 62
     7
100
AcDbLine
 10
66549.759778951
 20
14839.34260787971
 30
0.0
 11
51649.75979968883
 21
14839.3426078797
 31
0.0
  0
INSERT
  5
2F6
330
20
100
AcDbEntity
  8
3
100
AcDbBlockReference
  2
-000-DOOR_S
 10
30147.34685779821
 20
39847.02851682234
 30
0.0
 41
1600.0000019291
 42
1600.0000019291
 50
180.0
  0
LINE
  5
2F7
330
20
100
AcDbEntity
  8
3
  6
Continuous
 62
     7
100
AcDbLine
 10
30147.34685779821
 20
39647.02851658125
 30
0.0
 11
30147.34685779821
 21
39847.02851682234
 31
0.0
  0
LINE
  5
2F8
330
20
100
AcDbEntity
  8
3
  6
Continuous
 62
     7
100
AcDbLine
 10
28947.34685635143
 20
39847.02851682234
 30
0.0
 11
28947.34685635143
 21
39647.02851658125
 31
0.0
  0
INSERT
  5
2F9
330
20
100
AcDbEntity
  8
3
100
AcDbBlockReference
  2
-000-DOOR_S
 10
28947.34685635143
 20
39847.02851682234
 30
0.0
 41
-800.0000009645502
 42
800.0000009645502
 50
180.0
  0
INSERT
  5
2FA
330
20
100
AcDbEntity
  8
3
100
AcDbBlockReference
  2
-000-DOOR_S
 10
27151.85738724372
 20
38197.64421417714
 30
0.0
 41
-800.0000009645502
 42
800.0000009645502
 50
270.0
  0
INSERT
  5
2FB
330
20
100
AcDbEntity
  8
3
100
AcDbBlockReference
  2
-000-DOOR_S
 10
27151.85738724372
 20
39397.64421562394
 30
0.0
 41
1600.0000019291
 42
1600.0000019291
 50
270.0
  0
ARC
  5
2FC
330
20
100
AcDbEntity
  8
3
  6
Continuous
 62
     7
100
AcDbCircle
 10
27151.85738724368
 20
36680.77330509033
 30
0.0
 40
900.000001085119
100
AcDbArc
 50
180.0000000000009
 51
270.0
  0
LINE
  5
2FD
330
20
100
AcDbEntity
  8
3
  6
Continuous
 62
     7
100
AcDbLine
 10
26251.85738615858
 20
36680.77330509033
 30
0.0
 11
27351.85738748488
 21
36680.77330509033
 31
0.0
  0
ARC
  5
2FE
330
20
100
AcDbEntity
  8
3
  6
Continuous
 62
     7
100
AcDbCircle
 10
27151.85738724368
 20
34880.7733029201
 30
0.0
 40
900.000001085119
100
AcDbArc
 50
90.0
 51
179.9999999999991
  0
LINE
  5
2FF
330
20
100
AcDbEntity
  8
3
  6
Continuous
 62
     7
100
AcDbLine
 10
26251.85738615858
 20
34880.7733029201
 30
0.0
 11
27351.85738748482
 21
34880.7733029201
 31
0.0
  0
INSERT
  5
300
330
20
100
AcDbEntity
  8
3
100
AcDbBlockReference
  2
-000-DOOR_S
 10
27448.20645348126
 20
26772.18028169388
 30
0.0
 41
1600.0000019291
 42
1600.0000019291
  0
INSERT
  5
301
330
20
100
AcDbEntity
  8
3
100
AcDbBlockReference
  2
-000-DOOR_S
 10
29048.20645541034
 20
26772.18028169388
 30
0.0
 41
-1600.0000019291
 42
1600.0000019291
  0
INSERT
  5
302
330
20
100
AcDbEntity
  8
3
100
AcDbBlockReference
  2
-000-DOOR_S
 10
19853.8573784446
 20
25916.3842144466
 30
0.0
 41
1600.0000019291
 42
1600.0000019291
 50
270.0
  0
ARC
  5
303
330
20
100
AcDbEntity
  8
3
  6
Continuous
 62
     7
100
AcDbCircle
 10
49649.75979727745
 20
21172.18027494213
 30
0.0
 40
900.000001085119
100
AcDbArc
 50
90.0
 51
179.9999999999991
  0
LINE
  5
304
330
20
100
AcDbEntity
  8
3
  6
Continuous
 62
     7
100
AcDbLine
 10
48749.75979619232
 20
21172.18027494213
 30
0.0
 11
49849.75979751856
 21
21172.18027494213
 31
0.0
  0
ARC
  5
305
330
20
100
AcDbEntity
  8
3
  6
Continuous
 62
     7
100
AcDbCircle
 10
49649.75979727745
 20
22972.18027711239
 30
0.0
 40
900.000001085119
100
AcDbArc
 50
180.0000000000009
 51
270.0
  0
LINE
  5
306
330
20
100
AcDbEntity
  8
3
  6
Continuous
 62
     7
100
AcDbLine
 10
48749.75979619232
 20
22972.18027711239
 30
0.0
 11
49849.75979751856
 21
22972.18027711233
 31
0.0
  0
LINE
  5
307
330
20
100
AcDbEntity
  8
3
  6
Continuous
 62
     7
100
AcDbLine
 10
63349.75981379539
 20
17672.18027072211
 30
0.0
 11
64249.7598148805
 21
17672.18027072217
 31
0.0
  0
ARC
  5
308
330
20
100
AcDbEntity
  8
3
  6
Continuous
 62
     7
100
AcDbCircle
 10
64249.7598148805
 20
17672.18027072211
 30
0.0
 40
900.000001085119
100
AcDbArc
 50
90.0
 51
179.9999999999991
  0
LINE
  5
309
330
20
100
AcDbEntity
  8
3
  6
Continuous
 62
     7
100
AcDbLine
 10
63349.75981379539
 20
30672.18028639609
 30
0.0
 11
64249.7598148805
 21
30672.18028639613
 31
0.0
  0
ARC
  5
30A
330
20
100
AcDbEntity
  8
3
  6
Continuous
 62
     7
100
AcDbCircle
 10
64249.7598148805
 20
30672.18028639609
 30
0.0
 40
900.000001085119
100
AcDbArc
 50
90.0
 51
179.9999999999991
  0
INSERT
  5
30B
330
20
100
AcDbEntity
  8
3
100
AcDbBlockReference
  2
-000-DOOR_S
 10
58449.75980788748
 20
37672.18029483594
 30
0.0
 41
-1600.0000019291
 42
1600.0000019291
  0
INSERT
  5
30C
330
20
100
AcDbEntity
  8
3
100
AcDbBlockReference
  2
-000-DOOR_S
 10
57249.75980644068
 20
37672.18029483594
 30
0.0
 41
800.0000009645502
 42
800.0000009645502
  0
LINE
  5
30D
330
20
100
AcDbEntity
  8
3
  6
Continuous
 62
     7
100
AcDbLine
 10
49349.75979691573
 20
28972.18028434646
 30
0.0
 11
50049.75979775974
 21
28972.18028434646
 31
0.0
  0
ARC
  5
30E
330
20
100
AcDbEntity
  8
3
  6
Continuous
 62
     7
100
AcDbCircle
 10
49849.75979751856
 20
28972.18028434646
 30
0.0
 40
500.0000006028438
100
AcDbArc
 50
90.0
 51
180.0
  0
ARC
  5
30F
330
20
100
AcDbEntity
  8
3
  6
Continuous
 62
     7
100
AcDbCircle
 10
49849.75979751856
 20
30072.18028567273
 30
0.0
 40
600.0000007234127
100
AcDbArc
 50
180.0
 51
270.0
  0
LINE
  5
310
330
20
100
AcDbEntity
  8
3
  6
Continuous
 62
     7
100
AcDbLine
 10
49249.75979679518
 20
30072.18028567273
 30
0.0
 11
50049.75979775974
 21
30072.18028567273
 31
0.0
  0
INSERT
  5
311
330
20
100
AcDbEntity
  8
3
100
AcDbBlockReference
  2
-000-DOOR_S
 10
48849.7597963129
 20
37872.18029507704
 30
0.0
 41
800.0000009645502
 42
800.0000009645502
 50
180.0
  0
INSERT
  5
312
330
20
100
AcDbEntity
  8
3
100
AcDbBlockReference
  2
-000-DOOR_S
 10
47649.75979486606
 20
37872.18029507704
 30
0.0
 41
-1600.0000019291
 42
1600.0000019291
 50
180.0
  0
INSERT
  5
313
330
20
100
AcDbEntity
  8
3
100
AcDbBlockReference
  2
-000-DOOR_S
 10
51649.75979968883
 20
15972.1802686725
 30
0.0
 41
-1600.0000019291
 42
1600.0000019291
  0
ARC
  5
314
330
20
100
AcDbEntity
  8
3
  6
Continuous
 62
     7
100
AcDbCircle
 10
50249.75979800087
 20
15972.1802686725
 30
0.0
 40
600.0000007234127
100
AcDbArc
 50
270.0
 51
0.0
  0
LINE
  5
315
330
20
100
AcDbEntity
  8
3
  6
Continuous
 62
     7
100
AcDbLine
 10
50249.75979800087
 20
15372.18026794907
 30
0.0
 11
50249.75979800087
 21
15972.1802686725
 31
0.0
  0
ARC
  5
316
330
20
100
AcDbEntity
  8
3
  6
Continuous
 62
     7
100
AcDbCircle
 10
50249.75979800087
 20
17772.18027084269
 30
0.0
 40
600.0000007234127
100
AcDbArc
 50
270.0
 51
0.0
  0
INSERT
  5
317
330
20
100
AcDbEntity
  8
3
100
AcDbBlockReference
  2
-000-DOOR_S
 10
51649.75979968883
 20
17772.18027084269
 30
0.0
 41
-1600.0000019291
 42
1600.0000019291
  0
LINE
  5
318
330
20
100
AcDbEntity
  8
3
  6
Continuous
 62
     7
100
AcDbLine
 10
50249.75979800087
 20
17172.18027011929
 30
0.0
 11
50249.75979800087
 21
17772.18027084269
 31
0.0
  0
INSERT
  5
319
330
20
100
AcDbEntity
  8
3
100
AcDbBlockReference
  2
-000-DOOR_S
 10
33649.75977798642
 20
15772.18026843135
 30
0.0
 41
-1600.0000019291
 42
1600.0000019291
  0
INSERT
  5
31A
330
20
100
AcDbEntity
  8
3
100
AcDbBlockReference
  2
-000-DOOR_S
 10
32049.75977605734
 20
15772.18026843135
 30
0.0
 41
1600.0000019291
 42
1600.0000019291
  0
ARC
  5
31B
330
20
100
AcDbEntity
  8
3
  6
Continuous
 62
     7
100
AcDbCircle
 10
20349.75976195083
 20
14839.3426078797
 30
0.0
 40
922.8198607832709
100
AcDbArc
 50
90.00000000000019
 51
180.0
  0
LINE
  5
31C
330
20
100
AcDbEntity
  8
3
  6
Continuous
 62
     7
100
AcDbLine
 10
50099.75979782002
 20
14839.3426078797
 30
0.0
 11
50099.75979782002
 21
14064.34260694541
 31
0.0
  0
ARC
  5
31D
330
20
100
AcDbEntity
  8
3
  6
Continuous
 62
     7
100
AcDbCircle
 10
50099.75979782002
 20
14839.3426078797
 30
0.0
 40
775.0000009344002
100
AcDbArc
 50
269.9999999999995
 51
0.0
  0
ARC
  5
31E
330
20
100
AcDbEntity
  8
3
  6
Continuous
 62
     7
100
AcDbCircle
 10
51649.7597996888
 20
14839.3426078797
 30
0.0
 40
775.0000009344002
100
AcDbArc
 50
180.0
 51
270.0000000000017
  0
LINE
  5
31F
330
20
100
AcDbEntity
  8
3
  6
Continuous
 62
     7
100
AcDbLine
 10
51649.75979968883
 20
14839.3426078797
 30
0.0
 11
51649.75979968883
 21
14064.34260694541
 31
0.0
  0
LINE
  5
320
330
20
100
AcDbEntity
  8
詳細-1
  6
Continuous
100
AcDbLine
 10
19006.90430090723
 20
34162.1624867482
 30
0.0
 11
19006.90430090723
 21
30762.1624867482
 31
0.0
  0
LINE
  5
321
330
20
100
AcDbEntity
  8
詳細-1
  6
Continuous
100
AcDbLine
 10
19430.38083967593
 20
34462.1624867482
 30
0.0
 11
19430.38083967593
 21
30762.1624867482
 31
0.0
  0
LINE
  5
322
330
20
100
AcDbEntity
  8
詳細-1
  6
Continuous
100
AcDbLine
 10
19749.75976122739
 20
30762.1624867482
 30
0.0
 11
18806.90430090723
 21
30762.1624867482
 31
0.0
  0
LINE
  5
323
330
20
100
AcDbEntity
  8
詳細-1
  6
Continuous
100
AcDbLine
 10
19853.85737844461
 20
30962.1624867482
 30
0.0
 11
19006.90430090723
 21
30962.1624867482
 31
0.0
  0
LINE
  5
324
330
20
100
AcDbEntity
  8
詳細-1
  6
Continuous
100
AcDbLine
 10
19853.85737844461
 20
31162.1624867482
 30
0.0
 11
19006.90430090723
 21
31162.1624867482
 31
0.0
  0
LINE
  5
325
330
20
100
AcDbEntity
  8
詳細-1
  6
Continuous
100
AcDbLine
 10
19853.85737844461
 20
31362.1624867482
 30
0.0
 11
19006.90430090723
 21
31362.1624867482
 31
0.0
  0
LINE
  5
326
330
20
100
AcDbEntity
  8
詳細-1
  6
Continuous
100
AcDbLine
 10
19749.75976122739
 20
30762.1624867482
 30
0.0
 11
19853.85737844461
 21
30762.16248674824
 31
0.0
  0
LINE
  5
327
330
20
100
AcDbEntity
  8
詳細-1
  6
Continuous
100
AcDbLine
 10
19853.85737844461
 20
33162.1624867482
 30
0.0
 11
19006.90430090723
 21
33162.1624867482
 31
0.0
  0
LINE
  5
328
330
20
100
AcDbEntity
  8
詳細-1
  6
Continuous
100
AcDbLine
 10
19853.85737844461
 20
33362.1624867482
 30
0.0
 11
19006.90430090723
 21
33362.1624867482
 31
0.0
  0
LINE
  5
329
330
20
100
AcDbEntity
  8
詳細-1
  6
Continuous
100
AcDbLine
 10
19853.85737844461
 20
33562.1624867482
 30
0.0
 11
19006.90430090723
 21
33562.1624867482
 31
0.0
  0
LINE
  5
32A
330
20
100
AcDbEntity
  8
詳細-1
  6
Continuous
100
AcDbLine
 10
19853.85737844461
 20
31562.1624867482
 30
0.0
 11
19006.90430090723
 21
31562.1624867482
 31
0.0
  0
LINE
  5
32B
330
20
100
AcDbEntity
  8
詳細-1
  6
Continuous
100
AcDbLine
 10
19853.85737844461
 20
31762.1624867482
 30
0.0
 11
19006.90430090723
 21
31762.1624867482
 31
0.0
  0
LINE
  5
32C
330
20
100
AcDbEntity
  8
詳細-1
  6
Continuous
100
AcDbLine
 10
19853.85737844461
 20
31962.1624867482
 30
0.0
 11
19006.90430090723
 21
31962.1624867482
 31
0.0
  0
LINE
  5
32D
330
20
100
AcDbEntity
  8
詳細-1
  6
Continuous
100
AcDbLine
 10
19853.85737844461
 20
32162.1624867482
 30
0.0
 11
19006.90430090723
 21
32162.1624867482
 31
0.0
  0
LINE
  5
32E
330
20
100
AcDbEntity
  8
詳細-1
  6
Continuous
100
AcDbLine
 10
19853.85737844461
 20
32362.1624867482
 30
0.0
 11
19006.90430090723
 21
32362.1624867482
 31
0.0
  0
LINE
  5
32F
330
20
100
AcDbEntity
  8
詳細-1
  6
Continuous
100
AcDbLine
 10
19853.85737844461
 20
32562.1624867482
 30
0.0
 11
19006.90430090723
 21
32562.1624867482
 31
0.0
  0
LINE
  5
330
330
20
100
AcDbEntity
  8
詳細-1
  6
Continuous
100
AcDbLine
 10
19853.85737844461
 20
32762.1624867482
 30
0.0
 11
19006.90430090723
 21
32762.1624867482
 31
0.0
  0
LINE
  5
331
330
20
100
AcDbEntity
  8
詳細-1
  6
Continuous
100
AcDbLine
 10
19853.85737844461
 20
32962.1624867482
 30
0.0
 11
19006.90430090723
 21
32962.1624867482
 31
0.0
  0
LINE
  5
332
330
20
100
AcDbEntity
  8
詳細-1
  6
Continuous
100
AcDbLine
 10
19853.85737844461
 20
33762.1624867482
 30
0.0
 11
19006.90430090723
 21
33762.1624867482
 31
0.0
  0
LINE
  5
333
330
20
100
AcDbEntity
  8
詳細-1
  6
Continuous
100
AcDbLine
 10
19853.85737844461
 20
33962.1624867482
 30
0.0
 11
19006.90430090723
 21
33962.1624867482
 31
0.0
  0
LINE
  5
334
330
20
100
AcDbEntity
  8
詳細-1
  6
Continuous
100
AcDbLine
 10
19853.85737844461
 20
34162.1624867482
 30
0.0
 11
19006.90430090723
 21
34162.1624867482
 31
0.0
  0
LINE
  5
335
330
20
100
AcDbEntity
  8
詳細-1
  6
Continuous
100
AcDbLine
 10
19853.85737844461
 20
34362.1624867482
 30
0.0
 11
19289.22199341968
 21
34362.1624867482
 31
0.0
  0
LINE
  5
336
330
20
100
AcDbEntity
  8
詳細-1
  6
Continuous
100
AcDbLine
 10
18806.90430090723
 20
34020.47813234584
 30
0.0
 11
19853.85737844461
 21
34762.1624867482
 31
0.0
  0
LINE
  5
337
330
20
100
AcDbEntity
  8
詳細-1
  6
Continuous
100
AcDbLine
 10
19853.85737844461
 20
34562.1624867482
 30
0.0
 11
19571.53968593214
 21
34562.1624867482
 31
0.0
  0
LINE
  5
338
330
20
100
AcDbEntity
  8
詳細-1
  6
Continuous
100
AcDbLine
 10
23499.75976195083
 20
15300.7525578797
 30
0.0
 11
20349.75976195083
 21
15300.7525578797
 31
0.0
  0
LINE
  5
339
330
20
100
AcDbEntity
  8
詳細-1
  6
Continuous
100
AcDbLine
 10
23199.75976195083
 20
15762.1625078797
 30
0.0
 11
20349.75976195083
 21
15762.1625078797
 31
0.0
  0
LINE
  5
33A
330
20
100
AcDbEntity
  8
詳細-1
  6
Continuous
100
AcDbLine
 10
20349.75976195083
 20
14839.3426078797
 30
0.0
 11
20349.75976195083
 21
15762.16246866296
 31
0.0
  0
LINE
  5
33B
330
20
100
AcDbEntity
  8
詳細-1
  6
Continuous
100
AcDbLine
 10
20399.75976195083
 20
14839.3426078797
 30
0.0
 11
20399.75976195083
 21
15762.16246866296
 31
0.0
  0
LINE
  5
33C
330
20
100
AcDbEntity
  8
詳細-1
  6
Continuous
100
AcDbLine
 10
20599.75976195083
 20
14839.3426078797
 30
0.0
 11
20599.75976195083
 21
15762.16246866296
 31
0.0
  0
LINE
  5
33D
330
20
100
AcDbEntity
  8
詳細-1
  6
Continuous
100
AcDbLine
 10
20799.75976195083
 20
14839.3426078797
 30
0.0
 11
20799.75976195083
 21
15762.16246866296
 31
0.0
  0
LINE
  5
33E
330
20
100
AcDbEntity
  8
詳細-1
  6
Continuous
100
AcDbLine
 10
21399.75976195083
 20
14839.3426078797
 30
0.0
 11
21399.75976195083
 21
15762.16246866296
 31
0.0
  0
LINE
  5
33F
330
20
100
AcDbEntity
  8
詳細-1
  6
Continuous
100
AcDbLine
 10
21599.75976195083
 20
14839.3426078797
 30
0.0
 11
21599.75976195083
 21
15762.16246866296
 31
0.0
  0
LINE
  5
340
330
20
100
AcDbEntity
  8
詳細-1
  6
Continuous
100
AcDbLine
 10
21799.75976195083
 20
14839.3426078797
 30
0.0
 11
21799.75976195083
 21
15762.16246866296
 31
0.0
  0
LINE
  5
341
330
20
100
AcDbEntity
  8
詳細-1
  6
Continuous
100
AcDbLine
 10
21999.75976195083
 20
14839.3426078797
 30
0.0
 11
21999.75976195083
 21
15762.16246866296
 31
0.0
  0
LINE
  5
342
330
20
100
AcDbEntity
  8
詳細-1
  6
Continuous
100
AcDbLine
 10
22199.75976195083
 20
14839.3426078797
 30
0.0
 11
22199.75976195083
 21
15762.16246866296
 31
0.0
  0
LINE
  5
343
330
20
100
AcDbEntity
  8
詳細-1
  6
Continuous
100
AcDbLine
 10
22399.75976195083
 20
14839.3426078797
 30
0.0
 11
22399.75976195083
 21
15762.16246866296
 31
0.0
  0
LINE
  5
344
330
20
100
AcDbEntity
  8
詳細-1
  6
Continuous
100
AcDbLine
 10
20999.75976195083
 20
14839.3426078797
 30
0.0
 11
20999.75976195083
 21
15762.16246866296
 31
0.0
  0
LINE
  5
345
330
20
100
AcDbEntity
  8
詳細-1
  6
Continuous
100
AcDbLine
 10
21199.75976195083
 20
14839.3426078797
 30
0.0
 11
21199.75976195083
 21
15762.16246866296
 31
0.0
  0
LINE
  5
346
330
20
100
AcDbEntity
  8
詳細-1
  6
Continuous
100
AcDbLine
 10
22999.75976195083
 20
14839.3426078797
 30
0.0
 11
22999.75976195083
 21
15762.16246866296
 31
0.0
  0
LINE
  5
347
330
20
100
AcDbEntity
  8
詳細-1
  6
Continuous
100
AcDbLine
 10
23199.75976195083
 20
14839.3426078797
 30
0.0
 11
23199.75976195083
 21
15762.16246866296
 31
0.0
  0
LINE
  5
348
330
20
100
AcDbEntity
  8
詳細-1
  6
Continuous
100
AcDbLine
 10
23399.75976195083
 20
14839.3426078797
 30
0.0
 11
23399.75976195083
 21
15454.55587454636
 31
0.0
  0
LINE
  5
349
330
20
100
AcDbEntity
  8
詳細-1
  6
Continuous
100
AcDbLine
 10
23599.75976195083
 20
14839.3426078797
 30
0.0
 11
23599.75976195083
 21
15146.94924121304
 31
0.0
  0
LINE
  5
34A
330
20
100
AcDbEntity
  8
詳細-1
  6
Continuous
100
AcDbLine
 10
22599.75976195083
 20
14839.3426078797
 30
0.0
 11
22599.75976195083
 21
15762.16246866296
 31
0.0
  0
LINE
  5
34B
330
20
100
AcDbEntity
  8
詳細-1
  6
Continuous
100
AcDbLine
 10
22799.75976195083
 20
14839.3426078797
 30
0.0
 11
22799.75976195083
 21
15762.16246866296
 31
0.0
  0
LINE
  5
34C
330
20
100
AcDbEntity
  8
詳細-1
  6
Continuous
100
AcDbLine
 10
23063.21019634687
 20
15972.1802686725
 30
0.0
 11
23936.30932755479
 21
14629.32484708691
 31
0.0
  0
LINE
  5
34D
330
20
100
AcDbEntity
  8
1
  6
Continuous
 62
     7
100
AcDbLine
 10
66449.75981753299
 20
46605.01796443023
 30
0.0
 11
18306.9043009072
 21
46605.01796443023
 31
0.0
  0
LINE
  5
34E
330
20
100
AcDbEntity
  8
1
  6
Continuous
 62
     7
100
AcDbLine
 10
66449.75981753299
 20
46105.01796443023
 30
0.0
 11
18806.90430090723
 21
46105.01796443023
 31
0.0
  0
LINE
  5
34F
330
20
100
AcDbEntity
  8
1
  6
Continuous
 62
     7
100
AcDbLine
 10
66449.75981753299
 20
16172.18026891363
 30
0.0
 11
64449.75981512162
 21
16172.18026891363
 31
0.0
  0
LINE
  5
350
330
20
100
AcDbEntity
  8
1
  6
Continuous
 62
     7
100
AcDbLine
 10
66449.75981753299
 20
15972.1802686725
 30
0.0
 11
59649.75980933441
 21
15972.1802686725
 31
0.0
  0
LINE
  5
351
330
20
100
AcDbEntity
  8
詳細-2
  6
Continuous
100
AcDbLine
 10
33663.31878502869
 20
17262.72628226635
 30
0.0
 11
33663.31878502869
 21
17646.72628226635
 31
0.0
  0
LINE
  5
352
330
20
100
AcDbEntity
  8
詳細-2
  6
Continuous
100
AcDbLine
 10
33663.31878502869
 20
17646.72628226635
 30
0.0
 11
34047.31878502869
 21
17646.72628226635
 31
0.0
  0
LINE
  5
353
330
20
100
AcDbEntity
  8
詳細-2
  6
Continuous
100
AcDbLine
 10
34047.31878502869
 20
17646.72628226635
 30
0.0
 11
34047.31878502869
 21
17262.72628226635
 31
0.0
  0
LINE
  5
354
330
20
100
AcDbEntity
  8
詳細-2
  6
Continuous
100
AcDbLine
 10
34047.31878502869
 20
17262.72628226635
 30
0.0
 11
33663.31878502869
 21
17262.72628226635
 31
0.0
  0
LINE
  5
355
330
20
100
AcDbEntity
  8
詳細-2
  6
Continuous
100
AcDbLine
 10
27448.20645348126
 20
26972.18028193503
 30
0.0
 11
27351.85738748488
 21
26972.18028193503
 31
0.0
  0
LINE
  5
356
330
20
100
AcDbEntity
  8
詳細-2
  6
Continuous
100
AcDbLine
 10
29153.75267663207
 20
26972.18028193501
 30
0.0
 11
29048.20645541034
 21
26972.18028193503
 31
0.0
  0
LINE
  5
357
330
20
100
AcDbEntity
  8
詳細-2
  6
Continuous
100
AcDbLine
 10
32767.71338562307
 20
25787.56381663038
 30
0.0
 11
33567.71338562307
 21
25787.56381663038
 31
0.0
  0
LINE
  5
358
330
20
100
AcDbEntity
  8
詳細-2
  6
Continuous
100
AcDbLine
 10
33567.71338562307
 20
25787.56381663038
 30
0.0
 11
33567.71338562307
 21
24587.56381663038
 31
0.0
  0
LINE
  5
359
330
20
100
AcDbEntity
  8
詳細-2
  6
Continuous
100
AcDbLine
 10
33567.71338562307
 20
24587.56381663038
 30
0.0
 11
32767.71338562307
 21
24587.56381663038
 31
0.0
  0
LINE
  5
35A
330
20
100
AcDbEntity
  8
詳細-2
  6
Continuous
100
AcDbLine
 10
32767.71338562307
 20
24587.56381663038
 30
0.0
 11
32767.71338562307
 21
25787.56381663038
 31
0.0
  0
LINE
  5
35B
330
20
100
AcDbEntity
  8
詳細-2
  6
Continuous
100
AcDbLine
 10
31767.71338562307
 20
25787.56381663038
 30
0.0
 11
32767.71338562307
 21
25787.56381663038
 31
0.0
  0
LINE
  5
35C
330
20
100
AcDbEntity
  8
詳細-2
  6
Continuous
100
AcDbLine
 10
32767.71338562307
 20
25787.56381663038
 30
0.0
 11
32767.71338562307
 21
24587.56381663038
 31
0.0
  0
LINE
  5
35D
330
20
100
AcDbEntity
  8
詳細-2
  6
Continuous
100
AcDbLine
 10
32767.71338562307
 20
24587.56381663038
 30
0.0
 11
31767.71338562307
 21
24587.56381663038
 31
0.0
  0
LINE
  5
35E
330
20
100
AcDbEntity
  8
詳細-2
  6
Continuous
100
AcDbLine
 10
31767.71338562307
 20
24587.56381663038
 30
0.0
 11
31767.71338562307
 21
25787.56381663038
 31
0.0
  0
LINE
  5
35F
330
20
100
AcDbEntity
  8
詳細-2
  6
Continuous
100
AcDbLine
 10
30967.71338562307
 20
25787.56381663038
 30
0.0
 11
31767.71338562307
 21
25787.56381663038
 31
0.0
  0
LINE
  5
360
330
20
100
AcDbEntity
  8
詳細-2
  6
Continuous
100
AcDbLine
 10
31767.71338562307
 20
25787.56381663038
 30
0.0
 11
31767.71338562307
 21
24587.56381663038
 31
0.0
  0
LINE
  5
361
330
20
100
AcDbEntity
  8
詳細-2
  6
Continuous
100
AcDbLine
 10
31767.71338562307
 20
24587.56381663038
 30
0.0
 11
30967.71338562307
 21
24587.56381663038
 31
0.0
  0
LINE
  5
362
330
20
100
AcDbEntity
  8
詳細-2
  6
Continuous
100
AcDbLine
 10
30967.71338562307
 20
24587.56381663038
 30
0.0
 11
30967.71338562307
 21
25787.56381663038
 31
0.0
  0
LINE
  5
363
330
20
100
AcDbEntity
  8
詳細-2
  6
Continuous
100
AcDbLine
 10
29967.71338562307
 20
25787.56381663038
 30
0.0
 11
30967.71338562307
 21
25787.56381663038
 31
0.0
  0
LINE
  5
364
330
20
100
AcDbEntity
  8
詳細-2
  6
Continuous
100
AcDbLine
 10
30967.71338562307
 20
25787.56381663038
 30
0.0
 11
30967.71338562307
 21
24587.56381663038
 31
0.0
  0
LINE
  5
365
330
20
100
AcDbEntity
  8
詳細-2
  6
Continuous
100
AcDbLine
 10
30967.71338562307
 20
24587.56381663038
 30
0.0
 11
29967.71338562307
 21
24587.56381663038
 31
0.0
  0
LINE
  5
366
330
20
100
AcDbEntity
  8
詳細-2
  6
Continuous
100
AcDbLine
 10
29967.71338562307
 20
24587.56381663038
 30
0.0
 11
29967.71338562307
 21
25787.56381663038
 31
0.0
  0
LINE
  5
367
330
20
100
AcDbEntity
  8
詳細-2
  6
Continuous
100
AcDbLine
 10
28967.71338562307
 20
25787.56381663038
 30
0.0
 11
29967.71338562307
 21
25787.56381663038
 31
0.0
  0
LINE
  5
368
330
20
100
AcDbEntity
  8
詳細-2
  6
Continuous
100
AcDbLine
 10
29967.71338562307
 20
25787.56381663038
 30
0.0
 11
29967.71338562307
 21
24587.56381663038
 31
0.0
  0
LINE
  5
369
330
20
100
AcDbEntity
  8
詳細-2
  6
Continuous
100
AcDbLine
 10
29967.71338562307
 20
24587.56381663038
 30
0.0
 11
28967.71338562307
 21
24587.56381663038
 31
0.0
  0
LINE
  5
36A
330
20
100
AcDbEntity
  8
詳細-2
  6
Continuous
100
AcDbLine
 10
28967.71338562307
 20
24587.56381663038
 30
0.0
 11
28967.71338562307
 21
25787.56381663038
 31
0.0
  0
LINE
  5
36B
330
20
100
AcDbEntity
  8
詳細-2
  6
Continuous
100
AcDbLine
 10
35849.76137895103
 20
23392.80843248969
 30
0.0
 11
35649.76157895103
 21
23392.80843248969
 31
0.0
  0
LINE
  5
36C
330
20
100
AcDbEntity
  8
詳細-2
  6
Continuous
100
AcDbLine
 10
35649.76157895103
 20
23392.80843248969
 30
0.0
 11
35649.76157895103
 21
23192.8086324897
 31
0.0
  0
LINE
  5
36D
330
20
100
AcDbEntity
  8
詳細-2
  6
Continuous
100
AcDbLine
 10
35649.76157895103
 20
23192.8086324897
 30
0.0
 11
35849.76137895103
 21
23192.8086324897
 31
0.0
  0
LINE
  5
36E
330
20
100
AcDbEntity
  8
詳細-2
  6
Continuous
100
AcDbLine
 10
35849.76137895103
 20
23192.8086324897
 30
0.0
 11
35849.76137895103
 21
23392.80843248969
 31
0.0
  0
LINE
  5
36F
330
20
100
AcDbEntity
  8
詳細-2
  6
Continuous
100
AcDbLine
 10
35849.76137895096
 20
16049.01684660481
 30
0.0
 11
35649.76157895099
 21
16049.01684660481
 31
0.0
  0
LINE
  5
370
330
20
100
AcDbEntity
  8
詳細-2
  6
Continuous
100
AcDbLine
 10
35649.76157895099
 20
16049.01684660481
 30
0.0
 11
35649.76157895099
 21
15849.01704660482
 31
0.0
  0
LINE
  5
371
330
20
100
AcDbEntity
  8
詳細-2
  6
Continuous
100
AcDbLine
 10
35649.76157895099
 20
15849.01704660482
 30
0.0
 11
35849.76137895096
 21
15849.01704660482
 31
0.0
  0
LINE
  5
372
330
20
100
AcDbEntity
  8
詳細-2
  6
Continuous
100
AcDbLine
 10
35849.76137895096
 20
15849.01704660482
 30
0.0
 11
35849.76137895096
 21
16049.01684660481
 31
0.0
  0
TEXT
  5
373
330
20
100
AcDbEntity
  8
5
100
AcDbText
 10
10631.06679007798
 20
44472.18030303454
 30
0.0
 40
800.0000009645502
  1
1
 41
0.55
100
AcDbText
  0
CIRCLE
  5
374
330
20
100
AcDbEntity
  8
5
100
AcDbCircle
 10
10741.06679021061
 20
44872.18030351683
 30
0.0
 40
800.0000009645502
  0
TEXT
  5
375
330
20
100
AcDbEntity
  8
5
100
AcDbText
 10
10594.4001233671
 20
15672.1802683108
 30
0.0
 40
800.0000009645502
  1
5
 41
0.55
100
AcDbText
  0
CIRCLE
  5
376
330
20
100
AcDbEntity
  8
5
100
AcDbCircle
 10
10741.06679021061
 20
16072.18026879308
 30
0.0
 40
800.0000009645502
  0
CIRCLE
  5
377
330
20
100
AcDbEntity
  8
5
100
AcDbCircle
 10
10741.06679021061
 20
23262.16247770564
 30
0.0
 40
800.0000009645502
  0
TEXT
  5
378
330
20
100
AcDbEntity
  8
5
100
AcDbText
 10
10594.4001233671
 20
22862.16247722336
 30
0.0
 40
800.0000009645502
  1
4
 41
0.55
100
AcDbText
  0
TEXT
  5
379
330
20
100
AcDbEntity
  8
5
100
AcDbText
 10
10594.4001233671
 20
30072.18028567269
 30
0.0
 40
800.0000009645502
  1
3
 41
0.5500000000000002
100
AcDbText
  0
CIRCLE
  5
37A
330
20
100
AcDbEntity
  8
5
100
AcDbCircle
 10
10741.06679021061
 20
30472.18028615499
 30
0.0
 40
800.0000009645502
  0
CIRCLE
  5
37B
330
20
100
AcDbEntity
  8
5
100
AcDbCircle
 10
10741.06679021061
 20
37672.18029483594
 30
0.0
 40
800.0000009645502
  0
TEXT
  5
37C
330
20
100
AcDbEntity
  8
5
100
AcDbText
 10
10594.4001233671
 20
37272.18029435364
 30
0.0
 40
800.0000009645502
  1
2
 41
0.55
100
AcDbText
  0
CIRCLE
  5
37D
330
20
100
AcDbEntity
  8
5
100
AcDbCircle
 10
75157.02186178542
 20
44872.18030351683
 30
0.0
 40
800.0000009645502
  0
CIRCLE
  5
37E
330
20
100
AcDbEntity
  8
5
100
AcDbCircle
 10
75157.02186178542
 20
16072.18026879308
 30
0.0
 40
800.0000009645502
  0
CIRCLE
  5
37F
330
20
100
AcDbEntity
  8
5
100
AcDbCircle
 10
75157.02186178542
 20
23262.16247770564
 30
0.0
 40
800.0000009645502
  0
CIRCLE
  5
380
330
20
100
AcDbEntity
  8
5
100
AcDbCircle
 10
75157.02186178542
 20
30472.18028615499
 30
0.0
 40
800.0000009645502
  0
CIRCLE
  5
381
330
20
100
AcDbEntity
  8
5
100
AcDbCircle
 10
75157.02186178542
 20
37672.18029483594
 30
0.0
 40
800.0000009645502
  0
TEXT
  5
382
330
20
100
AcDbEntity
  8
5
100
AcDbText
 10
75047.0218616528
 20
44472.18030303454
 30
0.0
 40
800.0000009645502
  1
1'
 41
0.55
100
AcDbText
  0
TEXT
  5
383
330
20
100
AcDbEntity
  8
5
100
AcDbText
 10
75010.3551949419
 20
37272.18029435364
 30
0.0
 40
800.0000009645502
  1
2'
 41
0.55
100
AcDbText
  0
TEXT
  5
384
330
20
100
AcDbEntity
  8
5
100
AcDbText
 10
75010.3551949419
 20
30072.18028567269
 30
0.0
 40
800.0000009645502
  1
3'
 41
0.5500000000000002
100
AcDbText
  0
TEXT
  5
385
330
20
100
AcDbEntity
  8
5
100
AcDbText
 10
75010.3551949419
 20
22862.16247722336
 30
0.0
 40
800.0000009645502
  1
4'
 41
0.55
100
AcDbText
  0
TEXT
  5
386
330
20
100
AcDbEntity
  8
5
100
AcDbText
 10
75010.3551949419
 20
15672.18026831081
 30
0.0
 40
800.0000009645502
  1
5'
 41
0.55
100
AcDbText
  0
CIRCLE
  5
388
330
20
100
AcDbEntity
  8
5
100
AcDbCircle
 10
19992.09141688801
 20
55583.33690054965
 30
0.0
 40
800.0
  0
CIRCLE
  5
389
330
20
100
AcDbEntity
  8
5
100
AcDbCircle
 10
27192.09142556894
 20
55583.33690054965
 30
0.0
 40
800.0
  0
CIRCLE
  5
38A
330
20
100
AcDbEntity
  8
5
100
AcDbCircle
 10
34392.09142556896
 20
55583.33690054965
 30
0.0
 40
800.0
  0
CIRCLE
  5
38B
330
20
100
AcDbEntity
  8
5
100
AcDbCircle
 10
37692.09142556896
 20
55583.33690054965
 30
0.0
 40
800.0
  0
CIRCLE
  5
38C
330
20
100
AcDbEntity
  8
5
100
AcDbCircle
 10
44892.09142556896
 20
55583.33690054965
 30
0.0
 40
800.0
  0
CIRCLE
  5
38D
330
20
100
AcDbEntity
  8
5
100
AcDbCircle
 10
52141.35992778463
 20
55565.47696180995
 30
0.0
 40
800.0
  0
CIRCLE
  5
38E
330
20
100
AcDbEntity
  8
5
100
AcDbCircle
 10
59349.75981765354
 20
55262.29619925663
 30
0.0
 40
800.0
  0
CIRCLE
  5
38F
330
20
100
AcDbEntity
  8
5
100
AcDbCircle
 10
66469.39765921611
 20
55154.8111195026
 30
0.0
 40
800.0
  0
TEXT
  5
390
330
20
100
AcDbEntity
  8
5
100
AcDbText
 10
19735.42475022134
 20
55183.33690054965
 30
0.0
 40
800.0
  1
A
 41
0.55
100
AcDbText
  0
TEXT
  5
391
330
20
100
AcDbEntity
  8
5
100
AcDbText
 10
26935.42475890228
 20
55183.33690054965
 30
0.0
 40
800.0
  1
B
 41
0.55
100
AcDbText
  0
TEXT
  5
392
330
20
100
AcDbEntity
  8
5
100
AcDbText
 10
34135.42475890229
 20
55183.33690054965
 30
0.0
 40
800.0
  1
C
 41
0.55
100
AcDbText
  0
TEXT
  5
393
330
20
100
AcDbEntity
  8
5
100
AcDbText
 10
37435.4247589023
 20
55183.33690054965
 30
0.0
 40
800.0
  1
D
 41
0.55
100
AcDbText
  0
TEXT
  5
394
330
20
100
AcDbEntity
  8
5
100
AcDbText
 10
44635.42475890228
 20
55183.33690054965
 30
0.0
 40
800.0
  1
E
 41
0.55
100
AcDbText
  0
TEXT
  5
395
330
20
100
AcDbEntity
  8
5
100
AcDbText
 10
51994.69326111796
 20
55165.47696180984
 30
0.0
 40
800.0
  1
F
 41
0.55
100
AcDbText
  0
TEXT
  5
396
330
20
100
AcDbEntity
  8
5
100
AcDbText
 10
59203.09315098688
 20
54862.29619925655
 30
0.0
 40
800.0
  1
G
 41
0.55
100
AcDbText
  0
TEXT
  5
397
330
20
100
AcDbEntity
  8
5
100
AcDbText
 10
66322.73099254945
 20
54754.81111950252
 30
0.0
 40
800.0
  1
H
 41
0.55
100
AcDbText
  0
TEXT
  5
398
330
20
100
AcDbEntity
  8
5
100
AcDbText
 10
34135.42475890229
 20
5421.951433209824
 30
0.0
 40
800.0
  1
C'
 41
0.55
100
AcDbText
  0
CIRCLE
  5
399
330
20
100
AcDbEntity
  8
5
100
AcDbCircle
 10
19992.09141688801
 20
5821.951433209824
 30
0.0
 40
800.0
  0
CIRCLE
  5
39A
330
20
100
AcDbEntity
  8
5
100
AcDbCircle
 10
27192.09142556894
 20
5821.951433209824
 30
0.0
 40
800.0
  0
CIRCLE
  5
39B
330
20
100
AcDbEntity
  8
5
100
AcDbCircle
 10
34392.09142556896
 20
5821.951433209824
 30
0.0
 40
800.0
  0
CIRCLE
  5
39C
330
20
100
AcDbEntity
  8
5
100
AcDbCircle
 10
37692.09142556896
 20
5821.951433209824
 30
0.0
 40
800.0
  0
CIRCLE
  5
39D
330
20
100
AcDbEntity
  8
5
100
AcDbCircle
 10
44892.09142556896
 20
5821.951433209824
 30
0.0
 40
800.0
  0
CIRCLE
  5
39E
330
20
100
AcDbEntity
  8
5
100
AcDbCircle
 10
52141.35992778463
 20
5804.091494470129
 30
0.0
 40
800.0
  0
CIRCLE
  5
39F
330
20
100
AcDbEntity
  8
5
100
AcDbCircle
 10
59349.75981765354
 20
5500.910731916814
 30
0.0
 40
800.0
  0
CIRCLE
  5
3A0
330
20
100
AcDbEntity
  8
5
100
AcDbCircle
 10
66469.39765921611
 20
5393.425652162778
 30
0.0
 40
800.0
  0
TEXT
  5
3A1
330
20
100
AcDbEntity
  8
5
100
AcDbText
 10
19735.42475022134
 20
5421.95143320982
 30
0.0
 40
800.0
  1
A'
 41
0.55
100
AcDbText
  0
TEXT
  5
3A2
330
20
100
AcDbEntity
  8
5
100
AcDbText
 10
26935.42475890228
 20
5421.951433209824
 30
0.0
 40
800.0
  1
B'
 41
0.55
100
AcDbText
  0
TEXT
  5
3A3
330
20
100
AcDbEntity
  8
5
100
AcDbText
 10
37435.4247589023
 20
5421.951433209824
 30
0.0
 40
800.0
  1
D'
 41
0.55
100
AcDbText
  0
TEXT
  5
3A4
330
20
100
AcDbEntity
  8
5
100
AcDbText
 10
44635.42475890228
 20
5421.951433209824
 30
0.0
 40
800.0
  1
E'
 41
0.55
100
AcDbText
  0
TEXT
  5
3A5
330
20
100
AcDbEntity
  8
5
100
AcDbText
 10
51994.69326111796
 20
5404.091494470026
 30
0.0
 40
800.0
  1
F'
 41
0.55
100
AcDbText
  0
TEXT
  5
3A6
330
20
100
AcDbEntity
  8
5
100
AcDbText
 10
59203.09315098688
 20
5100.910731916734
 30
0.0
 40
800.0
  1
G'
 41
0.55
100
AcDbText
  0
TEXT
  5
3A7
330
20
100
AcDbEntity
  8
5
100
AcDbText
 10
66322.73099254945
 20
4993.425652162699
 30
0.0
 40
800.0
  1
H'
 41
0.55
100
AcDbText
  0
LINE
  5
3BF
330
20
100
AcDbEntity
  8
5
  6
CENTERX2
100
AcDbLine
 10
27249.75976158907
 20
49295.35624189758
 30
0.0
 11
27249.75976158907
 21
10185.30205622881
 31
0.0
  0
LINE
  5
3C0
330
20
100
AcDbEntity
  8
5
  6
CENTERX2
100
AcDbLine
 10
34449.75976158907
 20
49295.35624189758
 30
0.0
 11
34449.75976158907
 21
10185.30205622881
 31
0.0
  0
LINE
  5
3C1
330
20
100
AcDbEntity
  8
5
  6
CENTERX2
100
AcDbLine
 10
44949.75978292975
 20
49275.41507284604
 30
0.0
 11
44949.75978292975
 21
10195.31985599717
 31
0.0
  0
LINE
  5
3C2
330
20
100
AcDbEntity
  8
5
  6
CENTERX2
100
AcDbLine
 10
52149.75978292975
 20
49275.41507284604
 30
0.0
 11
52149.75978292975
 21
10195.31985599717
 31
0.0
  0
LINE
  5
3C3
330
20
100
AcDbEntity
  8
5
  6
CENTERX2
100
AcDbLine
 10
59349.75978292975
 20
48972.23431029273
 30
0.0
 11
59349.75978292975
 21
10195.31985599717
 31
0.0
  0
LINE
  5
3C4
330
20
100
AcDbEntity
  8
5
  6
CENTERX2
100
AcDbLine
 10
66549.75978292974
 20
48868.79575886322
 30
0.0
 11
66549.75978292974
 21
10195.31985599717
 31
0.0
  0
LINE
  5
3C6
330
20
100
AcDbEntity
  8
5
  6
CENTERX2
100
AcDbLine
 10
69957.02978761294
 20
37672.18030351684
 30
0.0
 11
15524.24352954382
 21
37672.18030351684
 31
0.0
  0
LINE
  5
3C7
330
20
100
AcDbEntity
  8
5
  6
CENTERX2
100
AcDbLine
 10
69957.02978761294
 20
30472.18030351683
 30
0.0
 11
15524.24352954382
 21
30472.18030351683
 31
0.0
  0
LINE
  5
3C8
330
20
100
AcDbEntity
  8
5
  6
CENTERX2
100
AcDbLine
 10
69957.02978761294
 20
23272.18030351684
 30
0.0
 11
15524.24352954382
 21
23272.18030351684
 31
0.0
  0
LINE
  5
3C9
330
20
100
AcDbEntity
  8
5
  6
CENTERX2
100
AcDbLine
 10
69957.02978761294
 20
16072.18030351683
 30
0.0
 11
15524.24352954382
 21
16072.18030351683
 31
0.0
  0
VIEWPORT
  5
48B
330
1C
100
AcDbEntity
 67
     1
  8
0
  6
Continuous
100
AcDbViewport
 10
505.7540370991346
 20
314.5081712972153
 30
0.0
 40
1037.485254818616
 41
628.3849705459455
 68
     1
 69
     1
 12
505.7540370991346
 22
314.5081712972153
 13
0.0
 23
0.0
 14
10.0
 24
10.0
 15
10.0
 25
10.0
 16
0.0
 26
0.0
 36
1.0
 17
0.0
 27
0.0
 37
0.0
 42
50.0
 43
0.0
 44
0.0
 45
628.3849705459455
 50
0.0
 51
0.0
 72
   100
 90
    32800
  1

281
     0
 71
     1
 74
     0
110
0.0
120
0.0
130
0.0
111
1.0
121
0.0
131
0.0
112
0.0
122
1.0
132
0.0
 79
     0
146
0.0
170
     0
  0
INSERT
  5
498
330
1C
100
AcDbEntity
 67
     1
  8
13
  6
Continuous
100
AcDbBlockReference
  2
zuwakusanpleA1-1_1
 10
-16.10500714901263
 20
-5.341388314413961
 30
0.0
  0
VIEWPORT
  5
49A
330
1C
100
AcDbEntity
 67
     1
  8
13
  6
Continuous
100
AcDbViewport
 10
404.3949928509873
 20
291.6586116855859
 30
0.0
 40
805.0
 41
557.9999999999997
 68
     2
 69
     2
 12
44563.65902236807
 22
30751.19818150369
 13
0.0
 23
0.0
 14
1.0
 24
1.0
 15
0.0
 25
0.0
 16
0.0
 26
0.0
 36
1.0
 17
0.0
 27
0.0
 37
0.0
 42
50.0
 43
0.0
 44
0.0
 45
55799.99999999998
 50
0.0
 51
0.0
 72
   100
 90
    32800
  1

281
     0
 71
     1
 74
     0
110
0.0
120
0.0
130
0.0
111
1.0
121
0.0
131
0.0
112
0.0
122
1.0
132
0.0
 79
     0
146
0.0
170
     0
  0
ENDSEC
  0
SECTION
  2
OBJECTS
  0
DICTIONARY
  5
C
330
0
100
AcDbDictionary
281
     1
  3
ACAD_COLOR
350
1B
  3
ACAD_GROUP
350
D
  3
ACAD_LAYOUT
350
19
  3
ACAD_MATERIAL
350
1A
  3
ACAD_MLINESTYLE
350
16
  3
ACAD_PLOTSETTINGS
350
18
  3
ACAD_PLOTSTYLENAME
350
E
  0
DICTIONARY
  5
1B
102
{ACAD_REACTORS
330
C
102
}
330
C
100
AcDbDictionary
281
     1
  0
DICTIONARY
  5
D
102
{ACAD_REACTORS
330
C
102
}
330
C
100
AcDbDictionary
281
     1
  0
DICTIONARY
  5
19
102
{ACAD_REACTORS
330
C
102
}
330
C
100
AcDbDictionary
281
     1
  3
A-1印刷
350
1F
  3
A-3印刷
350
49C
  3
Model
350
23
  0
DICTIONARY
  5
1A
102
{ACAD_REACTORS
330
C
102
}
330
C
100
AcDbDictionary
281
     1
  0
DICTIONARY
  5
16
102
{ACAD_REACTORS
330
C
102
}
330
C
100
AcDbDictionary
281
     1
  3
Standard
350
17
  0
DICTIONARY
  5
18
102
{ACAD_REACTORS
330
C
102
}
330
C
100
AcDbDictionary
281
     1
  3
A-1
350
4B7
  3
A-3
350
4B6
  0
ACDBDICTIONARYWDFLT
  5
E
102
{ACAD_REACTORS
330
C
102
}
330
C
100
AcDbDictionary
281
     1
  3
Normal
350
F
100
AcDbDictionaryWithDefault
340
F
  0
LAYOUT
  5
1F
102
{ACAD_REACTORS
330
19
102
}
330
19
100
AcDbPlotSettings
  1
A-1
  2
HP DesignJet 450C (E_A0) by HP.pc3
  4
User271
  6

 40
4.995333194732666
 41
16.93330574035644
 42
4.99530029296875
 43
16.933349609375
 44
593.9366455078125
 45
840.8246459960937
 46
0.0
 47
0.0
 48
0.0
 49
0.0
140
0.0
141
0.0
142
1.0
143
1.0
 70
   688
 72
     1
 73
     1
 74
     5
  7

 75
    16
147
1.0
 76
     1
 77
     2
 78
   150
148
0.0
149
0.0
100
AcDbLayout
  1
A-1印刷
 70
     0
 71
     1
 10
-16.933349609375
 20
-4.995333194732666
 11
823.8912963867187
 21
588.9413123130798
 12
0.0
 22
0.0
 32
0.0
 14
-16.10500714901263
 24
-5.341388314414167
 34
0.0
 15
824.8949928509874
 25
588.658611685586
 35
0.0
146
0.0
 13
0.0
 23
0.0
 33
0.0
 16
1.0
 26
0.0
 36
0.0
 17
0.0
 27
1.0
 37
0.0
 76
     0
330
1C
331
48B
  0
LAYOUT
  5
49C
102
{ACAD_REACTORS
330
19
102
}
330
19
100
AcDbPlotSettings
  1
A-3
  2
EPSON LP-6100
  4
A3
  6

 40
5.873749732971191
 41
5.873747825622558
 42
5.873748779296875
 43
5.873748779296875
 44
297.0106506347656
 45
419.9466552734374
 46
0.0
 47
0.0
 48
0.0
 49
0.0
140
0.0
141
0.0
142
1.0
143
1.0
 70
   688
 72
     1
 73
     1
 74
     5
  7

 75
    16
147
1.0
 76
     1
 77
     2
 78
   300
148
0.0
149
0.0
100
AcDbLayout
  1
A-3印刷
 70
     1
 71
     2
 10
-5.873748779296875
 20
-5.873749732971191
 11
414.0729064941406
 21
291.1369009017944
 12
0.0
 22
0.0
 32
0.0
 14
-6.155382427279732
 24
-6.479635668053447
 34
0.0
 15
413.8446175727203
 25
290.5203643319465
 35
0.0
146
0.0
 13
0.0
 23
0.0
 33
0.0
 16
1.0
 26
0.0
 36
0.0
 17
0.0
 27
1.0
 37
0.0
 76
     0
330
49B
331
4A2
  0
LAYOUT
  5
23
102
{ACAD_REACTORS
330
19
102
}
330
19
100
AcDbPlotSettings
  1

  2
HP DesignJet 450C (E_A0) by HP.pc3
  4
User1295
  6

 40
4.995333194732666
 41
16.93330574035644
 42
4.99530029296875
 43
16.933349609375
 44
840.9093017578125
 45
593.8519897460937
 46
12.96
 47
0.99
 48
4470.933519363403
 49
3986.690470695496
140
84970.93351936342
141
59786.69047069548
142
1.0
143
100.0
 70
 11956
 72
     1
 73
     0
 74
     4
  7

 75
    26
147
0.01
 76
     0
 77
     2
 78
   150
148
-4470.933519363403
149
-3986.690470695496
100
AcDbLayout
  1
Model
 70
     1
 71
     0
 10
0.0
 20
0.0
 11
12.0
 21
9.0
 12
0.0
 22
0.0
 32
0.0
 14
0.0
 24
0.0
 34
0.0
 15
0.0
 25
0.0
 35
0.0
146
0.0
 13
0.0
 23
0.0
 33
0.0
 16
1.0
 26
0.0
 36
0.0
 17
0.0
 27
1.0
 37
0.0
 76
     0
330
20
  0
MLINESTYLE
  5
17
102
{ACAD_REACTORS
330
16
102
}
330
16
100
AcDbMlineStyle
  2
STANDARD
 70
     0
  3

 62
   256
 51
90.0
 52
90.0
 71
     2
 49
0.5
 62
   256
  6
BYLAYER
 49
-0.5
 62
   256
  6
BYLAYER
  0
PLOTSETTINGS
  5
4B7
102
{ACAD_REACTORS
330
18
102
}
330
18
100
AcDbPlotSettings
  1
A-1
  2
HP DesignJet 450C (E_A0) by HP.pc3
  4
User271
  6

 40
4.995333194732666
 41
16.93330574035644
 42
4.99530029296875
 43
16.933349609375
 44
593.9366455078125
 45
840.8246459960937
 46
0.0
 47
0.0
 48
0.0
 49
0.0
140
0.0
141
0.0
142
1.0
143
1.0
 70
   688
 72
     1
 73
     1
 74
     5
  7

 75
    16
147
1.0
 76
     1
 77
     2
 78
   150
148
0.0
149
0.0
  0
PLOTSETTINGS
  5
4B6
102
{ACAD_REACTORS
330
18
102
}
330
18
100
AcDbPlotSettings
  1
A-3
  2
EPSON LP-6100
  4
A3
  6

 40
5.873749732971191
 41
5.873747825622558
 42
5.873748779296875
 43
5.873748779296875
 44
297.0106506347656
 45
419.9466552734374
 46
0.0
 47
0.0
 48
0.0
 49
0.0
140
0.0
141
0.0
142
1.0
143
1.0
 70
   688
 72
     1
 73
     1
 74
     5
  7

 75
    16
147
1.0
 76
     1
 77
     2
 78
   300
148
0.0
149
0.0
  0
ACDBPLACEHOLDER
  5
F
102
{ACAD_REACTORS
330
E
102
}
330
E
  0
ENDSEC
  0
EOF
